999
dxflib 3.26.4.0
  0
SECTION
  2
HEADER
  9
$ACADVER
  1
AC1015
  9
$HANDSEED
  5
FFFF
  9
$DIMADEC
 70
0
  9
$DIMASZ
 40
2.5
  9
$DIMATFIT
 70
0
  9
$DIMAUNIT
 70
0
  9
$DIMAZIN
 70
2
  9
$DIMBLK
  1
0
  9
$DIMBLK1
  1
0
  9
$DIMBLK2
  1
0
  9
$DIMDEC
 70
4
  9
$DIMDLI
 40
5.0
  9
$DIMDSEP
 70
46
  9
$DIMEXE
 40
1.25
  9
$DIMEXO
 40
0.625
  9
$DIMGAP
 40
0.625
  9
$DIMLFAC
 40
1.0
  9
$DIMLUNIT
 70
2
  9
$DIMSCALE
 40
1.0
  9
$DIMTAD
 70
1
  9
$DIMTIH
 70
0
  9
$DIMTSZ
 40
0.0
  9
$DIMTXT
 40
2.5
  9
$DIMZIN
 70
8
  9
$DWGCODEPAGE
  3
ANSI_1252
  9
$INSUNITS
 70
4
  9
$LTSCALE
 40
1.0
  9
$MAXACTVP
 70
64
  9
$MEASUREMENT
 70
1
  9
$MIRRTEXT
 70
0
  9
$PDMODE
 70
0
  9
$PDSIZE
 40
0.0
  0
ENDSEC
  0
SECTION
  2
TABLES
  0
TABLE
  2
VPORT
  5
8
100
AcDbSymbolTable
 70
1
  0
VPORT
  5
30
100
AcDbSymbolTableRecord
100
AcDbViewportTableRecord
  2
*Active
 70
0
 10
0.0
 20
0.0
 11
1.0
 21
1.0
 12
286.3055555555554861
 22
148.5
 13
0.0
 23
0.0
 14
10.0
 24
10.0
 15
10.0
 25
10.0
 16
0.0
 26
0.0
 36
1.0
 17
0.0
 27
0.0
 37
0.0
 40
297.0
 41
1.92798353909465
 42
50.0
 43
0.0
 44
0.0
 50
0.0
 51
0.0
 71
0
 72
100
 73
1
 74
3
 75
1
 76
1
 77
0
 78
0
281
0
 65
1
110
0.0
120
0.0
130
0.0
111
1.0
121
0.0
131
0.0
112
0.0
122
1.0
132
0.0
 79
0
146
0.0
  0
ENDTAB
  0
TABLE
  2
LTYPE
  5
5
100
AcDbSymbolTable
 70
41
  0
LTYPE
  5
16
100
AcDbSymbolTableRecord
100
AcDbLinetypeTableRecord
  2
Continuous
 70
0
  3
Solid line
 72
65
 73
0
 40
0.0
  0
LTYPE
  5
31
100
AcDbSymbolTableRecord
100
AcDbLinetypeTableRecord
  2
DOT
 70
0
  3
Dot . . . . . . . . . . . . . . . . . . . . . . . .
 72
65
 73
2
 40
6.3499999999999996
 49
0.1
 74
0
 49
-6.25
 74
0
  0
LTYPE
  5
32
100
AcDbSymbolTableRecord
100
AcDbLinetypeTableRecord
  2
DIVIDE2
 70
0
  3
Divide (.5x) __..__..__..__..__..__..__..__.._
 72
65
 73
6
 40
15.8749999999999982
 49
6.3499999999999996
 74
0
 49
-3.125
 74
0
 49
0.1
 74
0
 49
-3.0750000000000002
 74
0
 49
0.1
 74
0
 49
-3.125
 74
0
  0
LTYPE
  5
33
100
AcDbSymbolTableRecord
100
AcDbLinetypeTableRecord
  2
ACAD_ISO08W100
 70
0
  3
ISO long-dash short-dash ____ __ ____ __ ____ _
 72
65
 73
4
 40
36.0
 49
24.0
 74
0
 49
-3.0
 74
0
 49
6.0
 74
0
 49
-3.0
 74
0
  0
LTYPE
  5
34
100
AcDbSymbolTableRecord
100
AcDbLinetypeTableRecord
  2
ACAD_ISO09W100
 70
0
  3
ISO long-dash double-short-dash ____ __ __ ____
 72
65
 73
6
 40
45.0
 49
24.0
 74
0
 49
-3.0
 74
0
 49
6.0
 74
0
 49
-3.0
 74
0
 49
6.0
 74
0
 49
-3.0
 74
0
  0
LTYPE
  5
35
100
AcDbSymbolTableRecord
100
AcDbLinetypeTableRecord
  2
ACAD_ISO13W100
 70
0
  3
ISO double-dash double-dot __ __ . . __ __ . . _
 72
65
 73
8
 40
36.0000000000000071
 49
12.0
 74
0
 49
-3.0
 74
0
 49
12.0
 74
0
 49
-2.9500000000000002
 74
0
 49
0.1
 74
0
 49
-2.9000000000000004
 74
0
 49
0.1
 74
0
 49
-2.9500000000000002
 74
0
  0
LTYPE
  5
15
100
AcDbSymbolTableRecord
100
AcDbLinetypeTableRecord
  2
BYLAYER
 70
0
  3

 72
65
 73
0
 40
0.0
  0
LTYPE
  5
14
100
AcDbSymbolTableRecord
100
AcDbLinetypeTableRecord
  2
BYBLOCK
 70
0
  3

 72
65
 73
0
 40
0.0
  0
LTYPE
  5
36
100
AcDbSymbolTableRecord
100
AcDbLinetypeTableRecord
  2
DOT2
 70
0
  3
Dot (.5x) ........................................
 72
65
 73
2
 40
3.1749999999999998
 49
0.1
 74
0
 49
-3.0749999999999997
 74
0
  0
LTYPE
  5
37
100
AcDbSymbolTableRecord
100
AcDbLinetypeTableRecord
  2
DIVIDE
 70
0
  3
Divide ____ . . ____ . . ____ . . ____ . . ____
 72
65
 73
6
 40
31.7500000000000036
 49
12.6999999999999993
 74
0
 49
-6.2999999999999998
 74
0
 49
0.1
 74
0
 49
-6.25
 74
0
 49
0.1
 74
0
 49
-6.2999999999999998
 74
0
  0
LTYPE
  5
38
100
AcDbSymbolTableRecord
100
AcDbLinetypeTableRecord
  2
BORDER2
 70
0
  3
Border (.5x) __.__.__.__.__.__.__.__.__.__.__.
 72
65
 73
6
 40
22.2250000000000014
 49
6.3499999999999996
 74
0
 49
-3.1749999999999998
 74
0
 49
6.3499999999999996
 74
0
 49
-3.125
 74
0
 49
0.1
 74
0
 49
-3.125
 74
0
  0
LTYPE
  5
39
100
AcDbSymbolTableRecord
100
AcDbLinetypeTableRecord
  2
DASHDOT
 70
0
  3
Dash dot __ . __ . __ . __ . __ . __ . __ . __
 72
65
 73
4
 40
25.4000000000000021
 49
12.6999999999999993
 74
0
 49
-6.2999999999999998
 74
0
 49
0.1
 74
0
 49
-6.2999999999999998
 74
0
  0
LTYPE
  5
3A
100
AcDbSymbolTableRecord
100
AcDbLinetypeTableRecord
  2
ACAD_ISO11W100
 70
0
  3
ISO double-dash dot __ __ . __ __ . __ __ . __ _
 72
65
 73
6
 40
33.0
 49
12.0
 74
0
 49
-3.0
 74
0
 49
12.0
 74
0
 49
-2.9500000000000002
 74
0
 49
0.1
 74
0
 49
-2.9500000000000002
 74
0
  0
LTYPE
  5
3B
100
AcDbSymbolTableRecord
100
AcDbLinetypeTableRecord
  2
DASHEDX2
 70
0
  3
Dashed (2x) ____  ____  ____  ____  ____  ___
 72
65
 73
2
 40
38.0999999999999943
 49
25.3999999999999986
 74
0
 49
-12.6999999999999993
 74
0
  0
LTYPE
  5
3C
100
AcDbSymbolTableRecord
100
AcDbLinetypeTableRecord
  2
ACAD_ISO02W100
 70
0
  3
ISO dash __ __ __ __ __ __ __ __ __ __ __ __ __
 72
65
 73
2
 40
15.0
 49
12.0
 74
0
 49
-3.0
 74
0
  0
LTYPE
  5
3D
100
AcDbSymbolTableRecord
100
AcDbLinetypeTableRecord
  2
PHANTOM2
 70
0
  3
Phantom (.5x) ___ _ _ ___ _ _ ___ _ _ ___ _ _
 72
65
 73
6
 40
31.7500000000000036
 49
15.875
 74
0
 49
-3.1749999999999998
 74
0
 49
3.1749999999999998
 74
0
 49
-3.1749999999999998
 74
0
 49
3.1749999999999998
 74
0
 49
-3.1749999999999998
 74
0
  0
LTYPE
  5
3E
100
AcDbSymbolTableRecord
100
AcDbLinetypeTableRecord
  2
ACAD_ISO03W100
 70
0
  3
ISO dash space __    __    __    __    __    __
 72
65
 73
2
 40
30.0
 49
12.0
 74
0
 49
-18.0
 74
0
  0
LTYPE
  5
3F
100
AcDbSymbolTableRecord
100
AcDbLinetypeTableRecord
  2
CENTER
 70
0
  3
Center ____ _ ____ _ ____ _ ____ _ ____ _ ____
 72
65
 73
4
 40
50.8000000000000043
 49
31.75
 74
0
 49
-6.3499999999999996
 74
0
 49
6.3499999999999996
 74
0
 49
-6.3499999999999996
 74
0
  0
LTYPE
  5
40
100
AcDbSymbolTableRecord
100
AcDbLinetypeTableRecord
  2
DASHED2
 70
0
  3
Dashed (.5x) _ _ _ _ _ _ _ _ _ _ _ _ _ _ _ _ _ 
 72
65
 73
2
 40
9.5249999999999986
 49
6.3499999999999996
 74
0
 49
-3.1749999999999998
 74
0
  0
LTYPE
  5
41
100
AcDbSymbolTableRecord
100
AcDbLinetypeTableRecord
  2
PHANTOM
 70
0
  3
Phantom ______  __  __  ______  __  __  ______ 
 72
65
 73
6
 40
63.5000000000000071
 49
31.75
 74
0
 49
-6.3499999999999996
 74
0
 49
6.3499999999999996
 74
0
 49
-6.3499999999999996
 74
0
 49
6.3499999999999996
 74
0
 49
-6.3499999999999996
 74
0
  0
LTYPE
  5
42
100
AcDbSymbolTableRecord
100
AcDbLinetypeTableRecord
  2
DASHED
 70
0
  3
Dashed __ __ __ __ __ __ __ __ __ __ __ __ __ _
 72
65
 73
2
 40
19.0499999999999972
 49
12.6999999999999993
 74
0
 49
-6.3499999999999996
 74
0
  0
LTYPE
  5
43
100
AcDbSymbolTableRecord
100
AcDbLinetypeTableRecord
  2
DOTX2
 70
0
  3
Dot (2x) .  .  .  .  .  .  .  .  .  .  .  .  .  .
 72
65
 73
2
 40
12.6999999999999993
 49
0.1
 74
0
 49
-12.5999999999999996
 74
0
  0
LTYPE
  5
44
100
AcDbSymbolTableRecord
100
AcDbLinetypeTableRecord
  2
ACAD_ISO10W100
 70
0
  3
ISO dash dot __ . __ . __ . __ . __ . __ . __ . 
 72
65
 73
4
 40
18.0
 49
12.0
 74
0
 49
-2.9500000000000002
 74
0
 49
0.1
 74
0
 49
-2.9500000000000002
 74
0
  0
LTYPE
  5
45
100
AcDbSymbolTableRecord
100
AcDbLinetypeTableRecord
  2
ACAD_ISO12W100
 70
0
  3
ISO dash double-dot __ . . __ . . __ . . __ . . 
 72
65
 73
6
 40
21.0
 49
12.0
 74
0
 49
-2.9500000000000002
 74
0
 49
0.1
 74
0
 49
-2.9000000000000004
 74
0
 49
0.1
 74
0
 49
-2.9500000000000002
 74
0
  0
LTYPE
  5
46
100
AcDbSymbolTableRecord
100
AcDbLinetypeTableRecord
  2
ACAD_ISO06W100
 70
0
  3
ISO long-dash triple-dot ____ ... ____ ... ____
 72
65
 73
8
 40
36.0000000000000071
 49
24.0
 74
0
 49
-2.9500000000000002
 74
0
 49
0.1
 74
0
 49
-2.9000000000000004
 74
0
 49
0.1
 74
0
 49
-2.9000000000000004
 74
0
 49
0.1
 74
0
 49
-2.9500000000000002
 74
0
  0
LTYPE
  5
47
100
AcDbSymbolTableRecord
100
AcDbLinetypeTableRecord
  2
BORDER
 70
0
  3
Border __ __ . __ __ . __ __ . __ __ . __ __ .
 72
65
 73
6
 40
44.4499999999999957
 49
12.6999999999999993
 74
0
 49
-6.3499999999999996
 74
0
 49
12.6999999999999993
 74
0
 49
-6.2999999999999998
 74
0
 49
0.1
 74
0
 49
-6.2999999999999998
 74
0
  0
LTYPE
  5
48
100
AcDbSymbolTableRecord
100
AcDbLinetypeTableRecord
  2
ACAD_ISO05W100
 70
0
  3
ISO long-dash double-dot ____ .. ____ .. ____ . 
 72
65
 73
6
 40
33.0000000000000071
 49
24.0
 74
0
 49
-2.9500000000000002
 74
0
 49
0.1
 74
0
 49
-2.9000000000000004
 74
0
 49
0.1
 74
0
 49
-2.9500000000000002
 74
0
  0
LTYPE
  5
49
100
AcDbSymbolTableRecord
100
AcDbLinetypeTableRecord
  2
ACAD_ISO07W100
 70
0
  3
ISO dot . . . . . . . . . . . . . . . . . . . . 
 72
65
 73
2
 40
3.0
 49
0.1
 74
0
 49
-2.8999999999999999
 74
0
  0
LTYPE
  5
4A
100
AcDbSymbolTableRecord
100
AcDbLinetypeTableRecord
  2
CENTER2
 70
0
  3
Center (.5x) ___ _ ___ _ ___ _ ___ _ ___ _ ___
 72
65
 73
4
 40
28.5750000000000028
 49
19.0500000000000007
 74
0
 49
-3.1749999999999998
 74
0
 49
3.1749999999999998
 74
0
 49
-3.1749999999999998
 74
0
  0
LTYPE
  5
4B
100
AcDbSymbolTableRecord
100
AcDbLinetypeTableRecord
  2
ACAD_ISO15W100
 70
0
  3
ISO double-dash triple-dot __ __ . . . __ __ . .
 72
65
 73
10
 40
39.0000000000000071
 49
12.0
 74
0
 49
-3.0
 74
0
 49
12.0
 74
0
 49
-2.9500000000000002
 74
0
 49
0.1
 74
0
 49
-2.9000000000000004
 74
0
 49
0.1
 74
0
 49
-2.9000000000000004
 74
0
 49
0.1
 74
0
 49
-2.9500000000000002
 74
0
  0
LTYPE
  5
4C
100
AcDbSymbolTableRecord
100
AcDbLinetypeTableRecord
  2
DASHDOT2
 70
0
  3
Dash dot (.5x) _._._._._._._._._._._._._._._.
 72
65
 73
4
 40
12.6999999999999993
 49
6.3499999999999996
 74
0
 49
-3.125
 74
0
 49
0.1
 74
0
 49
-3.125
 74
0
  0
LTYPE
  5
4D
100
AcDbSymbolTableRecord
100
AcDbLinetypeTableRecord
  2
DASHDOTX2
 70
0
  3
Dash dot (2x) ____  .  ____  .  ____  .  ___
 72
65
 73
4
 40
50.7999999999999972
 49
25.3999999999999986
 74
0
 49
-12.6499999999999986
 74
0
 49
0.1
 74
0
 49
-12.6499999999999986
 74
0
  0
LTYPE
  5
4E
100
AcDbSymbolTableRecord
100
AcDbLinetypeTableRecord
  2
BORDERX2
 70
0
  3
Border (2x) ____  ____  .  ____  ____  .  ___
 72
65
 73
6
 40
88.8999999999999773
 49
25.3999999999999986
 74
0
 49
-12.6999999999999993
 74
0
 49
25.3999999999999986
 74
0
 49
-12.6499999999999986
 74
0
 49
0.1
 74
0
 49
-12.6499999999999986
 74
0
  0
LTYPE
  5
4F
100
AcDbSymbolTableRecord
100
AcDbLinetypeTableRecord
  2
ACAD_ISO04W100
 70
0
  3
ISO long-dash dot ____ . ____ . ____ . ____ . _
 72
65
 73
4
 40
30.0
 49
24.0
 74
0
 49
-2.9500000000000002
 74
0
 49
0.1
 74
0
 49
-2.9500000000000002
 74
0
  0
LTYPE
  5
50
100
AcDbSymbolTableRecord
100
AcDbLinetypeTableRecord
  2
HIDDEN
 70
0
  3
Hidden __ __ __ __ __ __ __ __ __ __ __ __ __ __
 72
65
 73
2
 40
9.5249999999999986
 49
6.3499999999999996
 74
0
 49
-3.1749999999999998
 74
0
  0
LTYPE
  5
51
100
AcDbSymbolTableRecord
100
AcDbLinetypeTableRecord
  2
HIDDENX2
 70
0
  3
Hidden (2x) ____ ____ ____ ____ ____ ____ ____ 
 72
65
 73
2
 40
19.0499999999999972
 49
12.6999999999999993
 74
0
 49
-6.3499999999999996
 74
0
  0
LTYPE
  5
52
100
AcDbSymbolTableRecord
100
AcDbLinetypeTableRecord
  2
HIDDEN2
 70
0
  3
Hidden (.5x) _ _ _ _ _ _ _ _ _ _ _ _ _ _ _ _ _ 
 72
65
 73
2
 40
4.7624999999999993
 49
3.1749999999999998
 74
0
 49
-1.5874999999999999
 74
0
  0
LTYPE
  5
53
100
AcDbSymbolTableRecord
100
AcDbLinetypeTableRecord
  2
DIVIDEX2
 70
0
  3
Divide (2x) ________  .  .  ________  .  .  _
 72
65
 73
6
 40
63.5
 49
25.3999999999999986
 74
0
 49
-12.6499999999999986
 74
0
 49
0.1
 74
0
 49
-12.5999999999999979
 74
0
 49
0.1
 74
0
 49
-12.6499999999999986
 74
0
  0
LTYPE
  5
54
100
AcDbSymbolTableRecord
100
AcDbLinetypeTableRecord
  2
ACAD_ISO14W100
 70
0
  3
ISO dash triple-dot __ . . . __ . . . __ . . . _
 72
65
 73
8
 40
24.0000000000000036
 49
12.0
 74
0
 49
-2.9500000000000002
 74
0
 49
0.1
 74
0
 49
-2.9000000000000004
 74
0
 49
0.1
 74
0
 49
-2.9000000000000004
 74
0
 49
0.1
 74
0
 49
-2.9500000000000002
 74
0
  0
LTYPE
  5
55
100
AcDbSymbolTableRecord
100
AcDbLinetypeTableRecord
  2
PHANTOMX2
 70
0
  3
Phantom (2x) ____________    ____    ____   _
 72
65
 73
6
 40
127.0000000000000142
 49
63.5
 74
0
 49
-12.6999999999999993
 74
0
 49
12.6999999999999993
 74
0
 49
-12.6999999999999993
 74
0
 49
12.6999999999999993
 74
0
 49
-12.6999999999999993
 74
0
  0
LTYPE
  5
56
100
AcDbSymbolTableRecord
100
AcDbLinetypeTableRecord
  2
CENTERX2
 70
0
  3
Center (2x) ________  __  ________  __  _____
 72
65
 73
4
 40
101.6000000000000085
 49
63.5
 74
0
 49
-12.6999999999999993
 74
0
 49
12.6999999999999993
 74
0
 49
-12.6999999999999993
 74
0
  0
ENDTAB
  0
TABLE
  2
LAYER
  5
2
100
AcDbSymbolTable
 70
1
  0
LAYER
  5
10
100
AcDbSymbolTableRecord
100
AcDbLayerTableRecord
  2
0
 70
4
 62
7
420
16777215
  6
Continuous
370
25
390
F
  0
ENDTAB
  0
TABLE
  2
STYLE
  5
3
100
AcDbSymbolTable
 70
1
  0
STYLE
  5
57
100
AcDbSymbolTableRecord
100
AcDbTextStyleTableRecord
  2
Standard
 70
0
 40
0.0
 41
1.0
 50
0.0
 71
0
 42
2.5
  3

  4

1001
ACAD
1000
txt
1071
0
  0
ENDTAB
  0
TABLE
  2
VIEW
  5
6
100
AcDbSymbolTable
 70
0
  0
ENDTAB
  0
TABLE
  2
UCS
  5
7
100
AcDbSymbolTable
 70
0
  0
ENDTAB
  0
TABLE
  2
APPID
  5
9
100
AcDbSymbolTable
 70
1
  0
APPID
  5
12
100
AcDbSymbolTableRecord
100
AcDbRegAppTableRecord
  2
ACAD
 70
0
  0
APPID
  5
58
100
AcDbSymbolTableRecord
100
AcDbRegAppTableRecord
  2
QCAD
 70
0
  0
ENDTAB
  0
TABLE
  2
DIMSTYLE
  5
A
100
AcDbSymbolTable
 70
1
100
AcDbDimStyleTable
 71
0
  0
DIMSTYLE
105
27
100
AcDbSymbolTableRecord
100
AcDbDimStyleTableRecord
  2
Standard
 41
2.5
 42
0.625
 43
3.75
 44
1.25
 70
0
 73
0
 74
0
 77
1
 78
8
140
2.5
141
2.5
143
0.03937007874016
147
0.625
171
3
172
1
271
2
272
2
274
3
278
44
283
0
284
8
340
57
  0
ENDTAB
  0
TABLE
  2
BLOCK_RECORD
  5
1
100
AcDbSymbolTable
 70
1
  0
BLOCK_RECORD
  5
1F
100
AcDbSymbolTableRecord
100
AcDbBlockTableRecord
  2
*Model_Space
340
22
  0
BLOCK_RECORD
  5
1B
100
AcDbSymbolTableRecord
100
AcDbBlockTableRecord
  2
*Paper_Space
340
1E
  0
BLOCK_RECORD
  5
23
100
AcDbSymbolTableRecord
100
AcDbBlockTableRecord
  2
*Paper_Space0
340
26
  0
BLOCK_RECORD
  5
59
100
AcDbSymbolTableRecord
100
AcDbBlockTableRecord
  2
outer_d10
340
0
  0
BLOCK_RECORD
  5
5A
100
AcDbSymbolTableRecord
100
AcDbBlockTableRecord
  2
inner
340
0
  0
BLOCK_RECORD
  5
5B
100
AcDbSymbolTableRecord
100
AcDbBlockTableRecord
  2
outer_d8
340
0
  0
ENDTAB
  0
ENDSEC
  0
SECTION
  2
BLOCKS
  0
BLOCK
  5
20
100
AcDbEntity
  8
0
100
AcDbBlockBegin
  2
*Model_Space
 70
0
 10
0.0
 20
0.0
 30
0.0
  3
*Model_Space
  1

  0
ENDBLK
  5
21
100
AcDbEntity
  8
0
100
AcDbBlockEnd
  0
BLOCK
  5
1C
100
AcDbEntity
 67
1
  8
0
100
AcDbBlockBegin
  2
*Paper_Space
 70
0
 10
0.0
 20
0.0
 30
0.0
  3
*Paper_Space
  1

  0
ENDBLK
  5
1D
100
AcDbEntity
 67
1
  8
0
100
AcDbBlockEnd
  0
BLOCK
  5
24
100
AcDbEntity
  8
0
100
AcDbBlockBegin
  2
*Paper_Space0
 70
0
 10
0.0
 20
0.0
 30
0.0
  3
*Paper_Space0
  1

  0
ENDBLK
  5
25
100
AcDbEntity
  8
0
100
AcDbBlockEnd
  0
BLOCK
  5
5C
100
AcDbEntity
  8
0
100
AcDbBlockBegin
  2
outer_d10
 70
0
 10
0.0
 20
0.0
 30
0.0
  3
outer_d10
  1

  0
LINE
  5
5D
100
AcDbEntity
  8
0
 62
256
370
-1
 48
1.0
  6
BYLAYER
100
AcDbLine
 10
9.9999999999999964
 20
0.0
 30
0.0
 11
20.0000000000000036
 21
0.0
 31
0.0
  0
LINE
  5
5E
100
AcDbEntity
  8
0
 62
256
370
-1
 48
1.0
  6
BYLAYER
100
AcDbLine
 10
92.0
 20
0.0
 30
0.0
 11
358.0000000000000568
 21
0.0
 31
0.0
  0
LINE
  5
5F
100
AcDbEntity
  8
0
 62
256
370
-1
 48
1.0
  6
BYLAYER
100
AcDbLine
 10
430.0000000000000568
 20
0.0
 30
0.0
 11
440.0
 21
0.0
 31
0.0
  0
LINE
  5
60
100
AcDbEntity
  8
0
 62
256
370
-1
 48
1.0
  6
BYLAYER
100
AcDbLine
 10
450.0
 20
10.0
 30
0.0
 11
450.0
 21
27.0
 31
0.0
  0
LINE
  5
61
100
AcDbEntity
  8
0
 62
256
370
-1
 48
1.0
  6
BYLAYER
100
AcDbLine
 10
447.0
 20
30.0
 30
0.0
 11
3.0
 21
30.0
 31
0.0
  0
LINE
  5
62
100
AcDbEntity
  8
0
 62
256
370
-1
 48
1.0
  6
BYLAYER
100
AcDbLine
 10
0.0
 20
27.0
 30
0.0
 11
0.0
 21
10.0
 31
0.0
  0
CIRCLE
  5
63
100
AcDbEntity
  8
0
 62
256
370
-1
 48
1.0
  6
BYLAYER
100
AcDbCircle
 10
15.0
 20
15.0
 30
0.0
 40
4.9999999999999991
  0
CIRCLE
  5
64
100
AcDbEntity
  8
0
 62
256
370
-1
 48
1.0
  6
BYLAYER
100
AcDbCircle
 10
435.0
 20
15.0
 30
0.0
 40
5.0
  0
LINE
  5
65
100
AcDbEntity
  8
0
 62
256
370
-1
 48
1.0
  6
BYLAYER
100
AcDbLine
 10
30.0
 20
9.9999999999999982
 30
0.0
 11
30.0000000000000036
 21
20.0
 31
0.0
  0
LINE
  5
66
100
AcDbEntity
  8
0
 62
256
370
-1
 48
1.0
  6
BYLAYER
100
AcDbLine
 10
30.0000000000000036
 20
20.0
 30
0.0
 11
82.0
 21
20.0
 31
0.0
  0
LINE
  5
67
100
AcDbEntity
  8
0
 62
256
370
-1
 48
1.0
  6
BYLAYER
100
AcDbLine
 10
82.0
 20
20.0
 30
0.0
 11
82.0
 21
10.0
 31
0.0
  0
LINE
  5
68
100
AcDbEntity
  8
0
 62
256
370
-1
 48
1.0
  6
BYLAYER
100
AcDbLine
 10
368.0000000000000568
 20
10.0
 30
0.0
 11
368.0000000000000568
 21
20.0
 31
0.0
  0
LINE
  5
69
100
AcDbEntity
  8
0
 62
256
370
-1
 48
1.0
  6
BYLAYER
100
AcDbLine
 10
368.0000000000000568
 20
20.0
 30
0.0
 11
420.0000000000000568
 21
20.0
 31
0.0
  0
LINE
  5
6A
100
AcDbEntity
  8
0
 62
256
370
-1
 48
1.0
  6
BYLAYER
100
AcDbLine
 10
420.0000000000000568
 20
20.0
 30
0.0
 11
420.0000000000000568
 21
10.0
 31
0.0
  0
CIRCLE
  5
6B
100
AcDbEntity
  8
0
 62
256
370
-1
 48
1.0
  6
BYLAYER
100
AcDbCircle
 10
225.0
 20
15.0
 30
0.0
 40
5.0
  0
ARC
  5
6C
100
AcDbEntity
  8
0
 62
256
370
-1
 48
1.0
  6
BYLAYER
100
AcDbCircle
 10
440.0
 20
10.0
 30
0.0
 40
10.0
100
AcDbArc
 50
270.0
 51
0.0
  0
ARC
  5
6D
100
AcDbEntity
  8
0
 62
256
370
-1
 48
1.0
  6
BYLAYER
100
AcDbCircle
 10
430.0000000000000568
 20
10.0
 30
0.0
 40
10.0
100
AcDbArc
 50
180.0
 51
270.0
  0
ARC
  5
6E
100
AcDbEntity
  8
0
 62
256
370
-1
 48
1.0
  6
BYLAYER
100
AcDbCircle
 10
358.0000000000000568
 20
10.0
 30
0.0
 40
10.0
100
AcDbArc
 50
270.0
 51
0.0
  0
ARC
  5
6F
100
AcDbEntity
  8
0
 62
256
370
-1
 48
1.0
  6
BYLAYER
100
AcDbCircle
 10
92.0
 20
10.0
 30
0.0
 40
10.0
100
AcDbArc
 50
180.0
 51
270.0
  0
ARC
  5
70
100
AcDbEntity
  8
0
 62
256
370
-1
 48
1.0
  6
BYLAYER
100
AcDbCircle
 10
20.0000000000000036
 20
10.0
 30
0.0
 40
10.0
100
AcDbArc
 50
270.0
 51
360.0
  0
ARC
  5
71
100
AcDbEntity
  8
0
 62
256
370
-1
 48
1.0
  6
BYLAYER
100
AcDbCircle
 10
10.0
 20
10.0
 30
0.0
 40
10.0
100
AcDbArc
 50
180.0
 51
270.0
  0
ARC
  5
72
100
AcDbEntity
  8
0
 62
256
370
-1
 48
1.0
  6
BYLAYER
100
AcDbCircle
 10
447.0
 20
27.0
 30
0.0
 40
3.0
100
AcDbArc
 50
0.0
 51
90.0
  0
ARC
  5
73
100
AcDbEntity
  8
0
 62
256
370
-1
 48
1.0
  6
BYLAYER
100
AcDbCircle
 10
3.0
 20
27.0
 30
0.0
 40
3.0
100
AcDbArc
 50
90.0
 51
180.0
  0
ENDBLK
  5
74
100
AcDbEntity
  8
0
100
AcDbBlockEnd
  0
BLOCK
  5
75
100
AcDbEntity
  8
0
100
AcDbBlockBegin
  2
inner
 70
0
 10
0.0
 20
0.0
 30
0.0
  3
inner
  1

  0
LINE
  5
76
100
AcDbEntity
  8
0
 62
256
370
-1
 48
1.0
  6
BYLAYER
100
AcDbLine
 10
9.9999999999999964
 20
0.0
 30
0.0
 11
440.0
 21
0.0
 31
0.0
  0
LINE
  5
77
100
AcDbEntity
  8
0
 62
256
370
-1
 48
1.0
  6
BYLAYER
100
AcDbLine
 10
450.0
 20
10.0
 30
0.0
 11
450.0
 21
27.0
 31
0.0
  0
LINE
  5
78
100
AcDbEntity
  8
0
 62
256
370
-1
 48
1.0
  6
BYLAYER
100
AcDbLine
 10
447.0
 20
30.0
 30
0.0
 11
3.0
 21
30.0
 31
0.0
  0
LINE
  5
79
100
AcDbEntity
  8
0
 62
256
370
-1
 48
1.0
  6
BYLAYER
100
AcDbLine
 10
0.0
 20
27.0
 30
0.0
 11
0.0
 21
10.0
 31
0.0
  0
ARC
  5
7A
100
AcDbEntity
  8
0
 62
256
370
-1
 48
1.0
  6
BYLAYER
100
AcDbCircle
 10
440.0
 20
10.0
 30
0.0
 40
10.0
100
AcDbArc
 50
270.0
 51
0.0
  0
ARC
  5
7B
100
AcDbEntity
  8
0
 62
256
370
-1
 48
1.0
  6
BYLAYER
100
AcDbCircle
 10
10.0
 20
10.0
 30
0.0
 40
10.0
100
AcDbArc
 50
180.0
 51
270.0
  0
ARC
  5
7C
100
AcDbEntity
  8
0
 62
256
370
-1
 48
1.0
  6
BYLAYER
100
AcDbCircle
 10
447.0
 20
27.0
 30
0.0
 40
3.0
100
AcDbArc
 50
0.0
 51
90.0
  0
ARC
  5
7D
100
AcDbEntity
  8
0
 62
256
370
-1
 48
1.0
  6
BYLAYER
100
AcDbCircle
 10
3.0
 20
27.0
 30
0.0
 40
3.0
100
AcDbArc
 50
90.0
 51
180.0
  0
CIRCLE
  5
7E
100
AcDbEntity
  8
0
 62
256
370
-1
 48
1.0
  6
BYLAYER
100
AcDbCircle
 10
435.0
 20
15.0
 30
0.0
 40
4.0
  0
CIRCLE
  5
7F
100
AcDbEntity
  8
0
 62
256
370
-1
 48
1.0
  6
BYLAYER
100
AcDbCircle
 10
15.0
 20
15.0
 30
0.0
 40
3.9999999999999991
  0
CIRCLE
  5
80
100
AcDbEntity
  8
0
 62
256
370
-1
 48
1.0
  6
BYLAYER
100
AcDbCircle
 10
225.0
 20
15.0
 30
0.0
 40
4.0
  0
ENDBLK
  5
81
100
AcDbEntity
  8
0
100
AcDbBlockEnd
  0
BLOCK
  5
82
100
AcDbEntity
  8
0
100
AcDbBlockBegin
  2
outer_d8
 70
0
 10
0.0
 20
0.0
 30
0.0
  3
outer_d8
  1

  0
LINE
  5
83
100
AcDbEntity
  8
0
 62
256
370
-1
 48
1.0
  6
BYLAYER
100
AcDbLine
 10
430.0000000000000568
 20
0.0
 30
0.0
 11
440.0
 21
0.0
 31
0.0
  0
LINE
  5
84
100
AcDbEntity
  8
0
 62
256
370
-1
 48
1.0
  6
BYLAYER
100
AcDbLine
 10
9.9999999999999964
 20
0.0
 30
0.0
 11
20.0000000000000036
 21
0.0
 31
0.0
  0
LINE
  5
85
100
AcDbEntity
  8
0
 62
256
370
-1
 48
1.0
  6
BYLAYER
100
AcDbLine
 10
92.0
 20
0.0
 30
0.0
 11
358.0000000000000568
 21
0.0
 31
0.0
  0
LINE
  5
86
100
AcDbEntity
  8
0
 62
256
370
-1
 48
1.0
  6
BYLAYER
100
AcDbLine
 10
450.0
 20
10.0
 30
0.0
 11
450.0
 21
27.0
 31
0.0
  0
LINE
  5
87
100
AcDbEntity
  8
0
 62
256
370
-1
 48
1.0
  6
BYLAYER
100
AcDbLine
 10
447.0
 20
30.0
 30
0.0
 11
3.0
 21
30.0
 31
0.0
  0
LINE
  5
88
100
AcDbEntity
  8
0
 62
256
370
-1
 48
1.0
  6
BYLAYER
100
AcDbLine
 10
0.0
 20
27.0
 30
0.0
 11
0.0
 21
10.0
 31
0.0
  0
LINE
  5
89
100
AcDbEntity
  8
0
 62
256
370
-1
 48
1.0
  6
BYLAYER
100
AcDbLine
 10
30.0
 20
10.0
 30
0.0
 11
30.0000000000000036
 21
20.0
 31
0.0
  0
LINE
  5
8A
100
AcDbEntity
  8
0
 62
256
370
-1
 48
1.0
  6
BYLAYER
100
AcDbLine
 10
30.0000000000000036
 20
20.0
 30
0.0
 11
82.0
 21
20.0
 31
0.0
  0
LINE
  5
8B
100
AcDbEntity
  8
0
 62
256
370
-1
 48
1.0
  6
BYLAYER
100
AcDbLine
 10
82.0
 20
20.0
 30
0.0
 11
82.0
 21
10.0
 31
0.0
  0
LINE
  5
8C
100
AcDbEntity
  8
0
 62
256
370
-1
 48
1.0
  6
BYLAYER
100
AcDbLine
 10
368.0000000000000568
 20
10.0
 30
0.0
 11
368.0000000000000568
 21
20.0
 31
0.0
  0
LINE
  5
8D
100
AcDbEntity
  8
0
 62
256
370
-1
 48
1.0
  6
BYLAYER
100
AcDbLine
 10
368.0000000000000568
 20
20.0
 30
0.0
 11
420.0000000000000568
 21
20.0
 31
0.0
  0
LINE
  5
8E
100
AcDbEntity
  8
0
 62
256
370
-1
 48
1.0
  6
BYLAYER
100
AcDbLine
 10
420.0000000000000568
 20
20.0
 30
0.0
 11
420.0000000000000568
 21
10.0
 31
0.0
  0
ARC
  5
8F
100
AcDbEntity
  8
0
 62
256
370
-1
 48
1.0
  6
BYLAYER
100
AcDbCircle
 10
440.0
 20
10.0
 30
0.0
 40
10.0
100
AcDbArc
 50
270.0
 51
0.0
  0
ARC
  5
90
100
AcDbEntity
  8
0
 62
256
370
-1
 48
1.0
  6
BYLAYER
100
AcDbCircle
 10
430.0000000000000568
 20
10.0
 30
0.0
 40
10.0
100
AcDbArc
 50
180.0
 51
270.0
  0
ARC
  5
91
100
AcDbEntity
  8
0
 62
256
370
-1
 48
1.0
  6
BYLAYER
100
AcDbCircle
 10
358.0000000000000568
 20
10.0
 30
0.0
 40
10.0
100
AcDbArc
 50
270.0
 51
0.0
  0
ARC
  5
92
100
AcDbEntity
  8
0
 62
256
370
-1
 48
1.0
  6
BYLAYER
100
AcDbCircle
 10
92.0
 20
10.0
 30
0.0
 40
10.0
100
AcDbArc
 50
180.0
 51
270.0
  0
ARC
  5
93
100
AcDbEntity
  8
0
 62
256
370
-1
 48
1.0
  6
BYLAYER
100
AcDbCircle
 10
20.0000000000000036
 20
10.0
 30
0.0
 40
10.0
100
AcDbArc
 50
270.0
 51
360.0
  0
ARC
  5
94
100
AcDbEntity
  8
0
 62
256
370
-1
 48
1.0
  6
BYLAYER
100
AcDbCircle
 10
10.0
 20
10.0
 30
0.0
 40
10.0
100
AcDbArc
 50
180.0
 51
270.0
  0
ARC
  5
95
100
AcDbEntity
  8
0
 62
256
370
-1
 48
1.0
  6
BYLAYER
100
AcDbCircle
 10
447.0
 20
27.0
 30
0.0
 40
3.0
100
AcDbArc
 50
0.0
 51
90.0
  0
ARC
  5
96
100
AcDbEntity
  8
0
 62
256
370
-1
 48
1.0
  6
BYLAYER
100
AcDbCircle
 10
3.0
 20
27.0
 30
0.0
 40
3.0
100
AcDbArc
 50
90.0
 51
180.0
  0
CIRCLE
  5
97
100
AcDbEntity
  8
0
 62
256
370
-1
 48
1.0
  6
BYLAYER
100
AcDbCircle
 10
435.0
 20
15.0
 30
0.0
 40
4.0
  0
CIRCLE
  5
98
100
AcDbEntity
  8
0
 62
256
370
-1
 48
1.0
  6
BYLAYER
100
AcDbCircle
 10
15.0
 20
15.0
 30
0.0
 40
3.9999999999999991
  0
CIRCLE
  5
99
100
AcDbEntity
  8
0
 62
256
370
-1
 48
1.0
  6
BYLAYER
100
AcDbCircle
 10
225.0
 20
15.0
 30
0.0
 40
4.0
  0
ENDBLK
  5
9A
100
AcDbEntity
  8
0
100
AcDbBlockEnd
  0
ENDSEC
  0
SECTION
  2
ENTITIES
  0
LINE
  5
9B
100
AcDbEntity
  8
0
 62
256
370
-1
 48
1.0
  6
BYLAYER
100
AcDbLine
 10
485.0
 20
-213.0
 30
0.0
 11
495.0
 21
-213.0
 31
0.0
  0
LINE
  5
9C
100
AcDbEntity
  8
0
 62
256
370
-1
 48
1.0
  6
BYLAYER
100
AcDbLine
 10
567.0
 20
-213.0
 30
0.0
 11
833.0
 21
-213.0
 31
0.0
  0
LINE
  5
9D
100
AcDbEntity
  8
0
 62
256
370
-1
 48
1.0
  6
BYLAYER
100
AcDbLine
 10
905.0
 20
-213.0
 30
0.0
 11
915.0
 21
-213.0
 31
0.0
  0
LINE
  5
9E
100
AcDbEntity
  8
0
 62
256
370
-1
 48
1.0
  6
BYLAYER
100
AcDbLine
 10
925.0
 20
-203.0
 30
0.0
 11
925.0
 21
-177.0
 31
0.0
  0
LINE
  5
9F
100
AcDbEntity
  8
0
 62
256
370
-1
 48
1.0
  6
BYLAYER
100
AcDbLine
 10
475.0
 20
-177.0
 30
0.0
 11
475.0
 21
-203.0
 31
0.0
  0
CIRCLE
  5
A0
100
AcDbEntity
  8
0
 62
256
370
-1
 48
1.0
  6
BYLAYER
100
AcDbCircle
 10
490.0
 20
-198.0
 30
0.0
 40
4.9999999999999991
  0
CIRCLE
  5
A1
100
AcDbEntity
  8
0
 62
256
370
-1
 48
1.0
  6
BYLAYER
100
AcDbCircle
 10
910.0
 20
-198.0
 30
0.0
 40
5.0
  0
LINE
  5
A2
100
AcDbEntity
  8
0
 62
256
370
-1
 48
1.0
  6
BYLAYER
100
AcDbLine
 10
505.0
 20
-203.0
 30
0.0
 11
505.0
 21
-193.0
 31
0.0
  0
LINE
  5
A3
100
AcDbEntity
  8
0
 62
256
370
-1
 48
1.0
  6
BYLAYER
100
AcDbLine
 10
505.0
 20
-193.0
 30
0.0
 11
557.0
 21
-193.0
 31
0.0
  0
LINE
  5
A4
100
AcDbEntity
  8
0
 62
256
370
-1
 48
1.0
  6
BYLAYER
100
AcDbLine
 10
557.0
 20
-193.0
 30
0.0
 11
557.0
 21
-203.0
 31
0.0
  0
LINE
  5
A5
100
AcDbEntity
  8
0
 62
256
370
-1
 48
1.0
  6
BYLAYER
100
AcDbLine
 10
843.0
 20
-203.0
 30
0.0
 11
843.0
 21
-193.0
 31
0.0
  0
LINE
  5
A6
100
AcDbEntity
  8
0
 62
256
370
-1
 48
1.0
  6
BYLAYER
100
AcDbLine
 10
843.0
 20
-193.0
 30
0.0
 11
895.0
 21
-193.0
 31
0.0
  0
LINE
  5
A7
100
AcDbEntity
  8
0
 62
256
370
-1
 48
1.0
  6
BYLAYER
100
AcDbLine
 10
895.0
 20
-193.0
 30
0.0
 11
895.0
 21
-203.0
 31
0.0
  0
INSERT
  5
A8
100
AcDbEntity
  8
0
 62
256
370
-1
 48
1.0
  6
BYLAYER
100
AcDbBlockReference
  2
outer_d10
 10
0.0
 20
-160.0
 30
0.0
  0
CIRCLE
  5
A9
100
AcDbEntity
  8
0
 62
256
370
-1
 48
1.0
  6
BYLAYER
100
AcDbCircle
 10
700.0
 20
-198.0
 30
0.0
 40
5.0
  0
INSERT
  5
AA
100
AcDbEntity
  8
0
 62
256
370
-1
 48
1.0
  6
BYLAYER
100
AcDbBlockReference
  2
outer_d8
 10
0.0
 20
-200.0
 30
0.0
  0
ARC
  5
AB
100
AcDbEntity
  8
0
 62
256
370
-1
 48
1.0
  6
BYLAYER
100
AcDbCircle
 10
915.0
 20
-203.0
 30
0.0
 40
10.0
100
AcDbArc
 50
270.0
 51
0.0
  0
INSERT
  5
AC
100
AcDbEntity
  8
0
 62
256
370
-1
 48
1.0
  6
BYLAYER
100
AcDbBlockReference
  2
inner
 10
0.0
 20
-120.0
 30
0.0
  0
ARC
  5
AD
100
AcDbEntity
  8
0
 62
256
370
-1
 48
1.0
  6
BYLAYER
100
AcDbCircle
 10
905.0
 20
-203.0
 30
0.0
 40
10.0
100
AcDbArc
 50
180.0
 51
270.0
  0
ARC
  5
AE
100
AcDbEntity
  8
0
 62
256
370
-1
 48
1.0
  6
BYLAYER
100
AcDbCircle
 10
833.0
 20
-203.0
 30
0.0
 40
10.0
100
AcDbArc
 50
270.0
 51
0.0
  0
ARC
  5
AF
100
AcDbEntity
  8
0
 62
256
370
-1
 48
1.0
  6
BYLAYER
100
AcDbCircle
 10
567.0
 20
-203.0
 30
0.0
 40
10.0
100
AcDbArc
 50
180.0
 51
270.0
  0
ARC
  5
B0
100
AcDbEntity
  8
0
 62
256
370
-1
 48
1.0
  6
BYLAYER
100
AcDbCircle
 10
495.0
 20
-203.0
 30
0.0
 40
10.0
100
AcDbArc
 50
270.0
 51
360.0
  0
ARC
  5
B1
100
AcDbEntity
  8
0
 62
256
370
-1
 48
1.0
  6
BYLAYER
100
AcDbCircle
 10
485.0
 20
-203.0
 30
0.0
 40
10.0
100
AcDbArc
 50
180.0
 51
270.0
  0
LINE
  5
B2
100
AcDbEntity
  8
0
 62
256
370
-1
 48
1.0
  6
BYLAYER
100
AcDbLine
 10
481.0
 20
-93.0
 30
0.0
 11
919.0
 21
-93.0
 31
0.0
  0
LINE
  5
B3
100
AcDbEntity
  8
0
 62
256
370
-1
 48
1.0
  6
BYLAYER
100
AcDbLine
 10
490.0
 20
-123.0
 30
0.0
 11
910.0
 21
-123.0
 31
0.0
  0
LINE
  5
B4
100
AcDbEntity
  8
0
 62
1
420
16711680
370
-1
 48
1.0
  6
BYLAYER
100
AcDbLine
 10
113.381152643566196
 20
-115.3251800675947152
 30
0.0
 11
110.9258760967091462
 21
-115.3251800675947152
 31
0.0
  0
LINE
  5
B5
100
AcDbEntity
  8
0
 62
1
420
16711680
370
-1
 48
1.0
  6
BYLAYER
100
AcDbLine
 10
110.9258760967091462
 20
-115.3251800675947152
 30
0.0
 11
110.9258760967091462
 21
-99.67771576429584
 31
0.0
  0
ARC
  5
B6
100
AcDbEntity
  8
0
 62
1
420
16711680
370
-1
 48
1.0
  6
BYLAYER
100
AcDbCircle
 10
102.2985887123204805
 20
-90.2538559951074291
 30
0.0
 40
12.7765105002171815
100
AcDbArc
 50
299.5526358146744315
 51
312.4732550634930135
  0
ARC
  5
B7
100
AcDbEntity
  8
0
 62
1
420
16711680
370
-1
 48
1.0
  6
BYLAYER
100
AcDbCircle
 10
100.0620786612004451
 20
-87.2591557496641599
 30
0.0
 40
16.4913629882546466
100
AcDbArc
 50
291.1611091569653809
 51
301.1805316101437597
  0
LINE
  5
B8
100
AcDbEntity
  8
0
 62
1
420
16711680
370
-1
 48
1.0
  6
BYLAYER
100
AcDbLine
 10
106.0153230029950464
 20
-102.6384904237411178
 30
0.0
 11
106.0153230029950464
 21
-100.2619928035211956
 31
0.0
  0
ARC
  5
B9
100
AcDbEntity
  8
0
 62
1
420
16711680
370
-1
 48
1.0
  6
BYLAYER
100
AcDbCircle
 10
99.7834070666766877
 20
-86.7569635172931015
 30
0.0
 40
14.87355345098198
100
AcDbArc
 50
294.7710325859645764
 51
311.3831166747719408
  0
SPLINE
  5
BA
100
AcDbEntity
  8
0
 62
1
420
16711680
370
-1
 48
1.0
  6
BYLAYER
100
AcDbSpline
 70
8
 71
3
 72
8
 73
4
 74
0
 40
0.0
 40
0.0
 40
0.0
 40
0.0
 40
1.0
 40
1.0
 40
1.0
 40
1.0
 10
109.6161764413669459
 20
-97.9166785084284612
 30
0.0
 10
110.6446790946849603
 20
-96.9986851827541869
 30
0.0
 10
111.3722900143195176
 20
-96.1074985751717179
 30
0.0
 10
111.7990092002706035
 20
-95.2431186856810399
 30
0.0
  0
LINE
  5
BB
100
AcDbEntity
  8
0
 62
1
420
16711680
370
-1
 48
1.0
  6
BYLAYER
100
AcDbLine
 10
111.7990092002706035
 20
-95.2431186856810399
 30
0.0
 11
113.381152643566196
 21
-95.2431186856810399
 31
0.0
  0
LINE
  5
BC
100
AcDbEntity
  8
0
 62
1
420
16711680
370
-1
 48
1.0
  6
BYLAYER
100
AcDbLine
 10
113.381152643566196
 20
-95.2431186856810399
 30
0.0
 11
113.381152643566196
 21
-115.3251800675947152
 31
0.0
  0
LINE
  5
BD
100
AcDbEntity
  8
0
 62
1
420
16711680
370
-1
 48
1.0
  6
BYLAYER
100
AcDbLine
 10
132.4095458817083113
 20
-100.2226033402026246
 30
0.0
 11
129.9673991559574517
 21
-100.4129857462423416
 31
0.0
  0
SPLINE
  5
BE
100
AcDbEntity
  8
0
 62
1
420
16711680
370
-1
 48
1.0
  6
BYLAYER
100
AcDbSpline
 70
8
 71
3
 72
8
 73
4
 74
0
 40
0.0
 40
0.0
 40
0.0
 40
0.0
 40
1.0
 40
1.0
 40
1.0
 40
1.0
 10
129.9673991559574517
 20
-100.4129857462423416
 30
0.0
 10
129.7507571077053683
 20
-99.4501321984552646
 30
0.0
 10
129.4422063117099526
 20
-98.7498750727919372
 30
0.0
 10
129.0417467679712331
 20
-98.3122143692523593
 30
0.0
  0
ARC
  5
BF
100
AcDbEntity
  8
0
 62
1
420
16711680
370
-1
 48
1.0
  6
BYLAYER
100
AcDbCircle
 10
126.6471291074747398
 20
-100.5148358422763124
 30
0.0
 40
3.2535726660685
100
AcDbArc
 50
42.6085250439174601
 51
91.0682716841817523
  0
ARC
  5
C0
100
AcDbEntity
  8
0
 62
1
420
16711680
370
-1
 48
1.0
  6
BYLAYER
100
AcDbCircle
 10
126.5241219085988291
 20
-100.630670111577885
 30
0.0
 40
3.3694183323069922
100
AcDbArc
 50
88.9397282534647928
 51
126.390644149694154
  0
ARC
  5
C1
100
AcDbEntity
  8
0
 62
1
420
16711680
370
-1
 48
1.0
  6
BYLAYER
100
AcDbCircle
 10
127.9299647510745501
 20
-102.3529071134808248
 30
0.0
 40
5.5909524058356208
100
AcDbArc
 50
127.5170561787029868
 51
159.3924202461996344
  0
SPLINE
  5
C2
100
AcDbEntity
  8
0
 62
1
420
16711680
370
-1
 48
1.0
  6
BYLAYER
100
AcDbSpline
 70
8
 71
3
 72
8
 73
4
 74
0
 40
0.0
 40
0.0
 40
0.0
 40
0.0
 40
1.0
 40
1.0
 40
1.0
 40
1.0
 10
122.6967607184061677
 20
-100.3850848763916872
 30
0.0
 10
122.2503468007957963
 20
-101.4672009658933121
 30
0.0
 10
122.0183866279198242
 20
-103.009407869990909
 30
0.0
 10
122.0008801997782371
 20
-105.0117055886844923
 30
0.0
  0
ARC
  5
C3
100
AcDbEntity
  8
0
 62
1
420
16711680
370
-1
 48
1.0
  6
BYLAYER
100
AcDbCircle
 10
126.8104358406075676
 20
-108.0343082282663687
 30
0.0
 40
5.6804887271290632
100
AcDbArc
 50
117.6922844884293937
 51
147.8523727394797618
  0
ARC
  5
C4
100
AcDbEntity
  8
0
 62
1
420
16711680
370
-1
 48
1.0
  6
BYLAYER
100
AcDbCircle
 10
126.8573896182390257
 20
-108.1889540892170913
 30
0.0
 40
5.8393199287879662
100
AcDbArc
 50
89.9850425798102549
 51
117.3950566551210102
  0
ARC
  5
C5
100
AcDbEntity
  8
0
 62
1
420
16711680
370
-1
 48
1.0
  6
BYLAYER
100
AcDbCircle
 10
126.9335476977004902
 20
-107.9122097246453791
 30
0.0
 40
5.5630760269349437
100
AcDbArc
 50
42.438325190671641
 51
90.7686976834492043
  0
SPLINE
  5
C6
100
AcDbEntity
  8
0
 62
1
420
16711680
370
-1
 48
1.0
  6
BYLAYER
100
AcDbSpline
 70
8
 71
3
 72
8
 73
4
 74
0
 40
0.0
 40
0.0
 40
0.0
 40
0.0
 40
1.0
 40
1.0
 40
1.0
 40
1.0
 10
131.039120803749995
 20
-104.1582672167823063
 30
0.0
 10
132.1890743023002699
 20
-105.3640224550338473
 30
0.0
 10
132.7640510515753931
 20
-106.9220945596347576
 30
0.0
 10
132.7640510515753931
 20
-108.8324835305850371
 30
0.0
  0
ARC
  5
C7
100
AcDbEntity
  8
0
 62
1
420
16711680
370
-1
 48
1.0
  6
BYLAYER
100
AcDbCircle
 10
125.0722889861614533
 20
-108.8921120266793992
 30
0.0
 40
7.6919931895762375
100
AcDbArc
 50
333.4527387162730747
 51
0.4441625596494708
  0
ARC
  5
C8
100
AcDbEntity
  8
0
 62
1
420
16711680
370
-1
 48
1.0
  6
BYLAYER
100
AcDbCircle
 10
126.6248310347607173
 20
-109.7738175694208991
 30
0.0
 40
5.90983733748328
100
AcDbArc
 50
301.6154104475842814
 51
334.37241616233689
  0
ARC
  5
C9
100
AcDbEntity
  8
0
 62
1
420
16711680
370
-1
 48
1.0
  6
BYLAYER
100
AcDbCircle
 10
126.6018938862092114
 20
-109.5790738186463074
 30
0.0
 40
6.0882621113778832
100
AcDbArc
 50
269.0825427100421621
 51
300.838476559020819
  0
SPLINE
  5
CA
100
AcDbEntity
  8
0
 62
1
420
16711680
370
-1
 48
1.0
  6
BYLAYER
100
AcDbSpline
 70
8
 71
3
 72
8
 73
4
 74
0
 40
0.0
 40
0.0
 40
0.0
 40
0.0
 40
1.0
 40
1.0
 40
1.0
 40
1.0
 10
126.5044088392005222
 20
-115.6665554163555925
 30
0.0
 10
124.4561567466352869
 20
-115.6665554163555925
 30
0.0
 10
122.7864811626317874
 20
-114.913779006267518
 30
0.0
 10
121.4953820871900234
 20
-113.4082261860913547
 30
0.0
  0
SPLINE
  5
CB
100
AcDbEntity
  8
0
 62
1
420
16711680
370
-1
 48
1.0
  6
BYLAYER
100
AcDbSpline
 70
8
 71
3
 72
8
 73
4
 74
0
 40
0.0
 40
0.0
 40
0.0
 40
0.0
 40
1.0
 40
1.0
 40
1.0
 40
1.0
 10
121.4953820871900234
 20
-113.4082261860913547
 30
0.0
 10
120.2042830117482595
 20
-111.9026733659151915
 30
0.0
 10
119.5587334740273775
 20
-109.4222313286046244
 30
0.0
 10
119.5587334740273775
 20
-105.966900074159625
 30
0.0
  0
SPLINE
  5
CC
100
AcDbEntity
  8
0
 62
1
420
16711680
370
-1
 48
1.0
  6
BYLAYER
100
AcDbSpline
 70
8
 71
3
 72
8
 73
4
 74
0
 40
0.0
 40
0.0
 40
0.0
 40
0.0
 40
1.0
 40
1.0
 40
1.0
 40
1.0
 10
119.5587334740273775
 20
-105.966900074159625
 30
0.0
 10
119.5587334740273775
 20
-102.1001677583874283
 30
0.0
 10
120.2732145725557444
 20
-99.2892918899044759
 30
0.0
 10
121.7021767696124783
 20
-97.5342724687107534
 30
0.0
  0
SPLINE
  5
CD
100
AcDbEntity
  8
0
 62
1
420
16711680
370
-1
 48
1.0
  6
BYLAYER
100
AcDbSpline
 70
8
 71
3
 72
8
 73
4
 74
0
 40
0.0
 40
0.0
 40
0.0
 40
0.0
 40
1.0
 40
1.0
 40
1.0
 40
1.0
 10
121.7021767696124783
 20
-97.5342724687107534
 30
0.0
 10
122.9473214711825761
 20
-96.0068366133576205
 30
0.0
 10
124.6246561174980343
 20
-95.2431186856810399
 30
0.0
 10
126.7341807085587959
 20
-95.2431186856810399
 30
0.0
  0
SPLINE
  5
CE
100
AcDbEntity
  8
0
 62
1
420
16711680
370
-1
 48
1.0
  6
BYLAYER
100
AcDbSpline
 70
8
 71
3
 72
8
 73
4
 74
0
 40
0.0
 40
0.0
 40
0.0
 40
0.0
 40
1.0
 40
1.0
 40
1.0
 40
1.0
 10
126.7341807085587959
 20
-95.2431186856810399
 30
0.0
 10
128.3075709377835949
 20
-95.2431186856810399
 30
0.0
 10
129.5970287855870993
 20
-95.6840618444971653
 30
0.0
 10
130.6025542519692806
 20
-96.5659481621294304
 30
0.0
  0
SPLINE
  5
CF
100
AcDbEntity
  8
0
 62
1
420
16711680
370
-1
 48
1.0
  6
BYLAYER
100
AcDbSpline
 70
8
 71
3
 72
8
 73
4
 74
0
 40
0.0
 40
0.0
 40
0.0
 40
0.0
 40
1.0
 40
1.0
 40
1.0
 40
1.0
 10
130.6025542519692806
 20
-96.5659481621294304
 30
0.0
 10
131.6080797183514619
 20
-97.4478344797616813
 30
0.0
 10
132.210410261597815
 20
-98.6667195391194127
 30
0.0
 10
132.4095458817083113
 20
-100.2226033402026246
 30
0.0
  0
ARC
  5
D0
100
AcDbEntity
  8
0
 62
1
420
16711680
370
-1
 48
1.0
  6
BYLAYER
100
AcDbCircle
 10
128.0694354185155817
 20
-108.8541227024369675
 30
0.0
 40
5.6877967719601079
100
AcDbArc
 50
179.9142813842422015
 51
205.1679438609482133
  0
ARC
  5
D1
100
AcDbEntity
  8
0
 62
1
420
16711680
370
-1
 48
1.0
  6
BYLAYER
100
AcDbCircle
 10
126.6063995492906997
 20
-109.6560805719474274
 30
0.0
 40
4.0239377543484185
100
AcDbArc
 50
203.6921570735229352
 51
237.2558432527164882
  0
ARC
  5
D2
100
AcDbEntity
  8
0
 62
1
420
16711680
370
-1
 48
1.0
  6
BYLAYER
100
AcDbCircle
 10
126.4807516065535538
 20
-109.8813830989533926
 30
0.0
 40
3.7665103190861111
100
AcDbArc
 50
237.0096860076777148
 51
269.710749264172307
  0
ARC
  5
D3
100
AcDbEntity
  8
0
 62
1
420
16711680
370
-1
 48
1.0
  6
BYLAYER
100
AcDbCircle
 10
126.4670822717761212
 20
-110.1814144984552541
 30
0.0
 40
3.4664350441757468
100
AcDbArc
 50
269.9116480823756774
 51
320.3720445785142488
  0
SPLINE
  5
D4
100
AcDbEntity
  8
0
 62
1
420
16711680
370
-1
 48
1.0
  6
BYLAYER
100
AcDbSpline
 70
8
 71
3
 72
8
 73
4
 74
0
 40
0.0
 40
0.0
 40
0.0
 40
0.0
 40
1.0
 40
1.0
 40
1.0
 40
1.0
 10
129.1369379709911129
 20
-112.3923062780000919
 30
0.0
 10
129.8831494705260923
 20
-111.5552801824806437
 30
0.0
 10
130.2562552202935819
 20
-110.417909429157163
 30
0.0
 10
130.2562552202935819
 20
-108.9801940180296356
 30
0.0
  0
SPLINE
  5
D5
100
AcDbEntity
  8
0
 62
1
420
16711680
370
-1
 48
1.0
  6
BYLAYER
100
AcDbSpline
 70
8
 71
3
 72
8
 73
4
 74
0
 40
0.0
 40
0.0
 40
0.0
 40
0.0
 40
1.0
 40
1.0
 40
1.0
 40
1.0
 10
130.2562552202935819
 20
-108.9801940180296356
 30
0.0
 10
130.2562552202935819
 20
-107.5993744983622662
 30
0.0
 10
129.887526077561489
 20
-106.5106934983075462
 30
0.0
 10
129.1500677920972748
 20
-105.7141510178655182
 30
0.0
  0
ARC
  5
D6
100
AcDbEntity
  8
0
 62
1
420
16711680
370
-1
 48
1.0
  6
BYLAYER
100
AcDbCircle
 10
126.4560729187656989
 20
-108.1505196877323272
 30
0.0
 40
3.6322858743558837
100
AcDbArc
 50
42.1252513541824101
 51
91.4123476147343723
  0
ARC
  5
D7
100
AcDbEntity
  8
0
 62
1
420
16711680
370
-1
 48
1.0
  6
BYLAYER
100
AcDbCircle
 10
126.3040604060873875
 20
-108.3076650828050447
 30
0.0
 40
3.7888430721424302
100
AcDbArc
 50
89.0550395273238422
 51
136.8026447865204602
  0
SPLINE
  5
D8
100
AcDbEntity
  8
0
 62
1
420
16711680
370
-1
 48
1.0
  6
BYLAYER
100
AcDbSpline
 70
8
 71
3
 72
8
 73
4
 74
0
 40
0.0
 40
0.0
 40
0.0
 40
0.0
 40
1.0
 40
1.0
 40
1.0
 40
1.0
 10
123.5419929521169848
 20
-105.7141510178655182
 30
0.0
 10
122.7684276586107757
 20
-106.5106934983075462
 30
0.0
 10
122.3816450118576711
 20
-107.5545142762494493
 30
0.0
 10
122.3816450118576711
 20
-108.8456133516912132
 30
0.0
  0
LINE
  5
D9
100
AcDbEntity
  8
0
 62
1
420
16711680
370
-1
 48
1.0
  6
BYLAYER
100
AcDbLine
 10
143.7274516752418663
 20
-100.83642247691688
 30
0.0
 11
146.1827282220989446
 21
-100.83642247691688
 31
0.0
  0
LINE
  5
DA
100
AcDbEntity
  8
0
 62
1
420
16711680
370
-1
 48
1.0
  6
BYLAYER
100
AcDbLine
 10
146.1827282220989446
 20
-100.83642247691688
 30
0.0
 11
146.1827282220989446
 21
-113.2933402514122179
 31
0.0
  0
LINE
  5
DB
100
AcDbEntity
  8
0
 62
1
420
16711680
370
-1
 48
1.0
  6
BYLAYER
100
AcDbLine
 10
146.1827282220989446
 20
-113.2933402514122179
 30
0.0
 11
151.7760320133347705
 21
-113.2933402514122179
 31
0.0
  0
LINE
  5
DC
100
AcDbEntity
  8
0
 62
1
420
16711680
370
-1
 48
1.0
  6
BYLAYER
100
AcDbLine
 10
151.7760320133347705
 20
-113.2933402514122179
 30
0.0
 11
151.7760320133347705
 21
-100.83642247691688
 31
0.0
  0
LINE
  5
DD
100
AcDbEntity
  8
0
 62
1
420
16711680
370
-1
 48
1.0
  6
BYLAYER
100
AcDbLine
 10
151.7760320133347705
 20
-100.83642247691688
 30
0.0
 11
154.2313085601918203
 21
-100.83642247691688
 31
0.0
  0
LINE
  5
DE
100
AcDbEntity
  8
0
 62
1
420
16711680
370
-1
 48
1.0
  6
BYLAYER
100
AcDbLine
 10
154.2313085601918203
 20
-100.83642247691688
 30
0.0
 11
154.2313085601918203
 21
-113.2933402514122179
 31
0.0
  0
LINE
  5
DF
100
AcDbEntity
  8
0
 62
1
420
16711680
370
-1
 48
1.0
  6
BYLAYER
100
AcDbLine
 10
154.2313085601918203
 20
-113.2933402514122179
 30
0.0
 11
159.8410246278103841
 21
-113.2933402514122179
 31
0.0
  0
LINE
  5
E0
100
AcDbEntity
  8
0
 62
1
420
16711680
370
-1
 48
1.0
  6
BYLAYER
100
AcDbLine
 10
159.8410246278103841
 20
-113.2933402514122179
 30
0.0
 11
159.8410246278103841
 21
-100.83642247691688
 31
0.0
  0
LINE
  5
E1
100
AcDbEntity
  8
0
 62
1
420
16711680
370
-1
 48
1.0
  6
BYLAYER
100
AcDbLine
 10
159.8410246278103841
 20
-100.83642247691688
 30
0.0
 11
162.2831713535612721
 21
-100.83642247691688
 31
0.0
  0
LINE
  5
E2
100
AcDbEntity
  8
0
 62
1
420
16711680
370
-1
 48
1.0
  6
BYLAYER
100
AcDbLine
 10
162.2831713535612721
 20
-100.83642247691688
 30
0.0
 11
162.2831713535612721
 21
-115.3251800675947152
 31
0.0
  0
LINE
  5
E3
100
AcDbEntity
  8
0
 62
1
420
16711680
370
-1
 48
1.0
  6
BYLAYER
100
AcDbLine
 10
162.2831713535612721
 20
-115.3251800675947152
 30
0.0
 11
143.7274516752418663
 21
-115.3251800675947152
 31
0.0
  0
LINE
  5
E4
100
AcDbEntity
  8
0
 62
1
420
16711680
370
-1
 48
1.0
  6
BYLAYER
100
AcDbLine
 10
143.7274516752418663
 20
-115.3251800675947152
 30
0.0
 11
143.7274516752418663
 21
-100.83642247691688
 31
0.0
  0
LINE
  5
E5
100
AcDbEntity
  8
0
 62
1
420
16711680
370
-1
 48
1.0
  6
BYLAYER
100
AcDbLine
 10
164.7351654451417744
 20
-100.83642247691688
 30
0.0
 11
176.5093325221153577
 21
-100.83642247691688
 31
0.0
  0
LINE
  5
E6
100
AcDbEntity
  8
0
 62
1
420
16711680
370
-1
 48
1.0
  6
BYLAYER
100
AcDbLine
 10
176.5093325221153577
 20
-100.83642247691688
 30
0.0
 11
176.5093325221153577
 21
-102.8682622930993915
 31
0.0
  0
LINE
  5
E7
100
AcDbEntity
  8
0
 62
1
420
16711680
370
-1
 48
1.0
  6
BYLAYER
100
AcDbLine
 10
176.5093325221153577
 20
-102.8682622930993915
 30
0.0
 11
171.8416811188657221
 21
-102.8682622930993915
 31
0.0
  0
LINE
  5
E8
100
AcDbEntity
  8
0
 62
1
420
16711680
370
-1
 48
1.0
  6
BYLAYER
100
AcDbLine
 10
171.8416811188657221
 20
-102.8682622930993915
 30
0.0
 11
171.8416811188657221
 21
-115.3251800675947152
 31
0.0
  0
LINE
  5
E9
100
AcDbEntity
  8
0
 62
1
420
16711680
370
-1
 48
1.0
  6
BYLAYER
100
AcDbLine
 10
171.8416811188657221
 20
-115.3251800675947152
 30
0.0
 11
169.3995343931148341
 21
-115.3251800675947152
 31
0.0
  0
LINE
  5
EA
100
AcDbEntity
  8
0
 62
1
420
16711680
370
-1
 48
1.0
  6
BYLAYER
100
AcDbLine
 10
169.3995343931148341
 20
-115.3251800675947152
 30
0.0
 11
169.3995343931148341
 21
-102.8682622930993915
 31
0.0
  0
LINE
  5
EB
100
AcDbEntity
  8
0
 62
1
420
16711680
370
-1
 48
1.0
  6
BYLAYER
100
AcDbLine
 10
169.3995343931148341
 20
-102.8682622930993915
 30
0.0
 11
164.7351654451417744
 21
-102.8682622930993915
 31
0.0
  0
LINE
  5
EC
100
AcDbEntity
  8
0
 62
1
420
16711680
370
-1
 48
1.0
  6
BYLAYER
100
AcDbLine
 10
164.7351654451417744
 20
-102.8682622930993915
 30
0.0
 11
164.7351654451417744
 21
-100.83642247691688
 31
0.0
  0
LINE
  5
ED
100
AcDbEntity
  8
0
 62
256
370
-1
 48
1.0
  6
BYLAYER
100
AcDbLine
 10
910.0
 20
-123.0
 30
0.0
 11
910.0
 21
-117.0
 31
0.0
  0
LINE
  5
EE
100
AcDbEntity
  8
0
 62
1
420
16711680
370
-1
 48
1.0
  6
BYLAYER
100
AcDbLine
 10
123.5167732995281398
 20
-152.9710075451080797
 30
0.0
 11
123.5167732995281398
 21
-155.3310928889452782
 31
0.0
  0
LINE
  5
EF
100
AcDbEntity
  8
0
 62
1
420
16711680
370
-1
 48
1.0
  6
BYLAYER
100
AcDbLine
 10
123.5167732995281398
 20
-155.3310928889452782
 30
0.0
 11
110.2983259008739481
 21
-155.3310928889452782
 31
0.0
  0
ARC
  5
F0
100
AcDbEntity
  8
0
 62
1
420
16711680
370
-1
 48
1.0
  6
BYLAYER
100
AcDbCircle
 10
114.6085208958466382
 20
-155.1748939642902485
 30
0.0
 40
4.3130243447899774
100
AcDbArc
 50
158.9284351803430013
 51
182.0754570146631579
  0
ARC
  5
F1
100
AcDbEntity
  8
0
 62
1
420
16711680
370
-1
 48
1.0
  6
BYLAYER
100
AcDbCircle
 10
119.0090010518795225
 20
-156.9260223606979707
 30
0.0
 40
9.0489922243966987
100
AcDbArc
 50
138.798997011437649
 51
158.5997345643480401
  0
ARC
  5
F2
100
AcDbEntity
  8
0
 62
1
420
16711680
370
-1
 48
1.0
  6
BYLAYER
100
AcDbCircle
 10
131.1212159517301643
 20
-167.8064773006699681
 30
0.0
 40
25.3301031257661791
100
AcDbArc
 50
128.328130801031449
 51
138.3281792442680285
  0
SPLINE
  5
F3
100
AcDbEntity
  8
0
 62
1
420
16711680
370
-1
 48
1.0
  6
BYLAYER
100
AcDbSpline
 70
8
 71
3
 72
8
 73
4
 74
0
 40
0.0
 40
0.0
 40
0.0
 40
0.0
 40
1.0
 40
1.0
 40
1.0
 40
1.0
 10
115.4123912217339551
 20
-147.9357211508852004
 30
0.0
 10
117.5875649183256684
 20
-146.1544420874791115
 30
0.0
 10
119.0570107304598082
 20
-144.7429863185639647
 30
0.0
 10
119.8207286581363746
 20
-143.70135384413976
 30
0.0
  0
SPLINE
  5
F4
100
AcDbEntity
  8
0
 62
1
420
16711680
370
-1
 48
1.0
  6
BYLAYER
100
AcDbSpline
 70
8
 71
3
 72
8
 73
4
 74
0
 40
0.0
 40
0.0
 40
0.0
 40
0.0
 40
1.0
 40
1.0
 40
1.0
 40
1.0
 10
119.8207286581363746
 20
-143.70135384413976
 30
0.0
 10
120.5844465858129411
 20
-142.6597213697155553
 30
0.0
 10
120.9663055496512243
 20
-141.6749847867515086
 30
0.0
 10
120.9663055496512243
 20
-140.7471440952475916
 30
0.0
  0
ARC
  5
F5
100
AcDbEntity
  8
0
 62
1
420
16711680
370
-1
 48
1.0
  6
BYLAYER
100
AcDbCircle
 10
117.6841482553804354
 20
-140.6849677305852708
 30
0.0
 40
3.2827461681734622
100
AcDbArc
 50
358.9147329311689987
 51
47.0117161881948746
  0
SPLINE
  5
F6
100
AcDbEntity
  8
0
 62
1
420
16711680
370
-1
 48
1.0
  6
BYLAYER
100
AcDbSpline
 70
8
 71
3
 72
8
 73
4
 74
0
 40
0.0
 40
0.0
 40
0.0
 40
0.0
 40
1.0
 40
1.0
 40
1.0
 40
1.0
 10
119.9224847717093354
 20
-138.283661410199187
 30
0.0
 10
119.2266042530814047
 20
-137.615134685542472
 30
0.0
 10
118.3195524449956224
 20
-137.2808713232141145
 30
0.0
 10
117.2013293474519884
 20
-137.2808713232141145
 30
0.0
  0
SPLINE
  5
F7
100
AcDbEntity
  8
0
 62
1
420
16711680
370
-1
 48
1.0
  6
BYLAYER
100
AcDbSpline
 70
8
 71
3
 72
8
 73
4
 74
0
 40
0.0
 40
0.0
 40
0.0
 40
0.0
 40
1.0
 40
1.0
 40
1.0
 40
1.0
 10
117.2013293474519884
 20
-137.2808713232141145
 30
0.0
 10
116.017457144377417
 20
-137.2808713232141145
 30
0.0
 10
115.0710158729730779
 20
-137.6359235689606066
 30
0.0
 10
114.3620055332389569
 20
-138.3460280604535626
 30
0.0
  0
SPLINE
  5
F8
100
AcDbEntity
  8
0
 62
1
420
16711680
370
-1
 48
1.0
  6
BYLAYER
100
AcDbSpline
 70
8
 71
3
 72
8
 73
4
 74
0
 40
0.0
 40
0.0
 40
0.0
 40
0.0
 40
1.0
 40
1.0
 40
1.0
 40
1.0
 10
114.3620055332389569
 20
-138.3460280604535626
 30
0.0
 10
113.6529951935048359
 20
-139.056132551946547
 30
0.0
 10
113.2941134166023716
 20
-140.0381337555134564
 30
0.0
 10
113.2853602025315922
 20
-141.2920316711543762
 30
0.0
  0
LINE
  5
F9
100
AcDbEntity
  8
0
 62
1
420
16711680
370
-1
 48
1.0
  6
BYLAYER
100
AcDbLine
 10
113.2853602025315922
 20
-141.2920316711543762
 30
0.0
 11
110.7611520948670574
 21
-141.0327177043071742
 31
0.0
  0
SPLINE
  5
FA
100
AcDbEntity
  8
0
 62
1
420
16711680
370
-1
 48
1.0
  6
BYLAYER
100
AcDbSpline
 70
8
 71
3
 72
8
 73
4
 74
0
 40
0.0
 40
0.0
 40
0.0
 40
0.0
 40
1.0
 40
1.0
 40
1.0
 40
1.0
 10
110.7611520948670574
 20
-141.0327177043071742
 30
0.0
 10
110.9340280727651873
 20
-139.1507766790869596
 30
0.0
 10
111.5845012934008906
 20
-137.7163437232359797
 30
0.0
 10
112.7125717567741532
 20
-136.7294188367542347
 30
0.0
  0
SPLINE
  5
FB
100
AcDbEntity
  8
0
 62
1
420
16711680
370
-1
 48
1.0
  6
BYLAYER
100
AcDbSpline
 70
8
 71
3
 72
8
 73
4
 74
0
 40
0.0
 40
0.0
 40
0.0
 40
0.0
 40
1.0
 40
1.0
 40
1.0
 40
1.0
 10
112.7125717567741532
 20
-136.7294188367542347
 30
0.0
 10
113.84064222014743
 20
-135.7424939502724897
 30
0.0
 10
115.3544011785149479
 20
-135.2490315070316171
 30
0.0
 10
117.2538486318767355
 20
-135.2490315070316171
 30
0.0
  0
SPLINE
  5
FC
100
AcDbEntity
  8
0
 62
1
420
16711680
370
-1
 48
1.0
  6
BYLAYER
100
AcDbSpline
 70
8
 71
3
 72
8
 73
4
 74
0
 40
0.0
 40
0.0
 40
0.0
 40
0.0
 40
1.0
 40
1.0
 40
1.0
 40
1.0
 10
117.2538486318767355
 20
-135.2490315070316171
 30
0.0
 10
119.1729908168977943
 20
-135.2490315070316171
 30
0.0
 10
120.6922205340595724
 20
-135.7813363377116218
 30
0.0
 10
121.8115377833620414
 20
-136.8459459990716596
 30
0.0
  0
ARC
  5
FD
100
AcDbEntity
  8
0
 62
1
420
16711680
370
-1
 48
1.0
  6
BYLAYER
100
AcDbCircle
 10
118.2505565424595062
 20
-140.6915881687608305
 30
0.0
 40
5.2411402476323339
100
AcDbArc
 50
358.782554152700925
 51
47.2009822132916952
  0
ARC
  5
FE
100
AcDbEntity
  8
0
 62
1
420
16711680
370
-1
 48
1.0
  6
BYLAYER
100
AcDbCircle
 10
117.4862992402828468
 20
-140.7839101236341719
 30
0.0
 40
6.0042445922872867
100
AcDbArc
 50
336.6737330126131837
 51
359.8183505470647674
  0
ARC
  5
FF
100
AcDbEntity
  8
0
 62
1
420
16711680
370
-1
 48
1.0
  6
BYLAYER
100
AcDbCircle
 10
114.6979339967482616
 20
-139.3816262940375168
 30
0.0
 40
9.1218073780002751
100
AcDbArc
 50
316.9926761128265298
 51
335.5206251098641133
  0
SPLINE
  5
100
100
AcDbEntity
  8
0
 62
1
420
16711680
370
-1
 48
1.0
  6
BYLAYER
100
AcDbSpline
 70
8
 71
3
 72
8
 73
4
 74
0
 40
0.0
 40
0.0
 40
0.0
 40
0.0
 40
1.0
 40
1.0
 40
1.0
 40
1.0
 10
121.3684063210282176
 20
-145.6035366768986705
 30
0.0
 10
120.6079708486281987
 20
-146.4580692005596916
 30
0.0
 10
119.3458667947959384
 20
-147.6315469619252099
 30
0.0
 10
117.5820941595314224
 20
-149.1239699609951685
 30
0.0
  0
ARC
  5
101
100
AcDbEntity
  8
0
 62
1
420
16711680
370
-1
 48
1.0
  6
BYLAYER
100
AcDbCircle
 10
144.7057420981989821
 20
-182.5737282073428105
 30
0.0
 40
43.0648186370253754
100
AcDbArc
 50
129.0378095429699101
 51
134.0851288803721104
  0
ARC
  5
102
100
AcDbEntity
  8
0
 62
1
420
16711680
370
-1
 48
1.0
  6
BYLAYER
100
AcDbCircle
 10
120.4381796120359098
 20
-157.1384170515988217
 30
0.0
 40
7.9152948923538951
100
AcDbArc
 50
135.9998060933416753
 51
148.2306650547996014
  0
LINE
  5
103
100
AcDbEntity
  8
0
 62
1
420
16711680
370
-1
 48
1.0
  6
BYLAYER
100
AcDbLine
 10
113.7087969332061306
 20
-152.9710075451080797
 30
0.0
 11
123.5167732995281398
 21
-152.9710075451080797
 31
0.0
  0
LINE
  5
104
100
AcDbEntity
  8
0
 62
1
420
16711680
370
-1
 48
1.0
  6
BYLAYER
100
AcDbLine
 10
134.6705563292343584
 20
-140.842335298267443
 30
0.0
 11
137.1258328760914083
 21
-140.842335298267443
 31
0.0
  0
LINE
  5
105
100
AcDbEntity
  8
0
 62
1
420
16711680
370
-1
 48
1.0
  6
BYLAYER
100
AcDbLine
 10
137.1258328760914083
 20
-140.842335298267443
 30
0.0
 11
137.1258328760914083
 21
-153.2992530727627809
 31
0.0
  0
LINE
  5
106
100
AcDbEntity
  8
0
 62
1
420
16711680
370
-1
 48
1.0
  6
BYLAYER
100
AcDbLine
 10
137.1258328760914083
 20
-153.2992530727627809
 30
0.0
 11
142.7191366673272626
 21
-153.2992530727627809
 31
0.0
  0
LINE
  5
107
100
AcDbEntity
  8
0
 62
1
420
16711680
370
-1
 48
1.0
  6
BYLAYER
100
AcDbLine
 10
142.7191366673272626
 20
-153.2992530727627809
 30
0.0
 11
142.7191366673272626
 21
-140.842335298267443
 31
0.0
  0
LINE
  5
108
100
AcDbEntity
  8
0
 62
1
420
16711680
370
-1
 48
1.0
  6
BYLAYER
100
AcDbLine
 10
142.7191366673272626
 20
-140.842335298267443
 30
0.0
 11
145.1744132141843124
 21
-140.842335298267443
 31
0.0
  0
LINE
  5
109
100
AcDbEntity
  8
0
 62
1
420
16711680
370
-1
 48
1.0
  6
BYLAYER
100
AcDbLine
 10
145.1744132141843124
 20
-140.842335298267443
 30
0.0
 11
145.1744132141843124
 21
-153.2992530727627809
 31
0.0
  0
LINE
  5
10A
100
AcDbEntity
  8
0
 62
1
420
16711680
370
-1
 48
1.0
  6
BYLAYER
100
AcDbLine
 10
145.1744132141843124
 20
-153.2992530727627809
 30
0.0
 11
150.7841292818028762
 21
-153.2992530727627809
 31
0.0
  0
LINE
  5
10B
100
AcDbEntity
  8
0
 62
1
420
16711680
370
-1
 48
1.0
  6
BYLAYER
100
AcDbLine
 10
150.7841292818028762
 20
-153.2992530727627809
 30
0.0
 11
150.7841292818028762
 21
-140.842335298267443
 31
0.0
  0
LINE
  5
10C
100
AcDbEntity
  8
0
 62
1
420
16711680
370
-1
 48
1.0
  6
BYLAYER
100
AcDbLine
 10
150.7841292818028762
 20
-140.842335298267443
 30
0.0
 11
153.2262760075537358
 21
-140.842335298267443
 31
0.0
  0
LINE
  5
10D
100
AcDbEntity
  8
0
 62
1
420
16711680
370
-1
 48
1.0
  6
BYLAYER
100
AcDbLine
 10
153.2262760075537358
 20
-140.842335298267443
 30
0.0
 11
153.2262760075537358
 21
-155.3310928889452782
 31
0.0
  0
LINE
  5
10E
100
AcDbEntity
  8
0
 62
1
420
16711680
370
-1
 48
1.0
  6
BYLAYER
100
AcDbLine
 10
153.2262760075537358
 20
-155.3310928889452782
 30
0.0
 11
134.6705563292343584
 21
-155.3310928889452782
 31
0.0
  0
LINE
  5
10F
100
AcDbEntity
  8
0
 62
1
420
16711680
370
-1
 48
1.0
  6
BYLAYER
100
AcDbLine
 10
134.6705563292343584
 20
-155.3310928889452782
 30
0.0
 11
134.6705563292343584
 21
-140.842335298267443
 31
0.0
  0
LINE
  5
110
100
AcDbEntity
  8
0
 62
1
420
16711680
370
-1
 48
1.0
  6
BYLAYER
100
AcDbLine
 10
155.6782700991342381
 20
-140.842335298267443
 30
0.0
 11
167.4524371761078214
 21
-140.842335298267443
 31
0.0
  0
LINE
  5
111
100
AcDbEntity
  8
0
 62
1
420
16711680
370
-1
 48
1.0
  6
BYLAYER
100
AcDbLine
 10
167.4524371761078214
 20
-140.842335298267443
 30
0.0
 11
167.4524371761078214
 21
-142.8741751144499688
 31
0.0
  0
LINE
  5
112
100
AcDbEntity
  8
0
 62
1
420
16711680
370
-1
 48
1.0
  6
BYLAYER
100
AcDbLine
 10
167.4524371761078214
 20
-142.8741751144499688
 30
0.0
 11
162.7847857728581857
 21
-142.8741751144499688
 31
0.0
  0
LINE
  5
113
100
AcDbEntity
  8
0
 62
1
420
16711680
370
-1
 48
1.0
  6
BYLAYER
100
AcDbLine
 10
162.7847857728581857
 20
-142.8741751144499688
 30
0.0
 11
162.7847857728581857
 21
-155.3310928889452782
 31
0.0
  0
LINE
  5
114
100
AcDbEntity
  8
0
 62
1
420
16711680
370
-1
 48
1.0
  6
BYLAYER
100
AcDbLine
 10
162.7847857728581857
 20
-155.3310928889452782
 30
0.0
 11
160.3426390471073262
 21
-155.3310928889452782
 31
0.0
  0
LINE
  5
115
100
AcDbEntity
  8
0
 62
1
420
16711680
370
-1
 48
1.0
  6
BYLAYER
100
AcDbLine
 10
160.3426390471073262
 20
-155.3310928889452782
 30
0.0
 11
160.3426390471073262
 21
-142.8741751144499688
 31
0.0
  0
LINE
  5
116
100
AcDbEntity
  8
0
 62
1
420
16711680
370
-1
 48
1.0
  6
BYLAYER
100
AcDbLine
 10
160.3426390471073262
 20
-142.8741751144499688
 30
0.0
 11
155.6782700991342381
 21
-142.8741751144499688
 31
0.0
  0
LINE
  5
117
100
AcDbEntity
  8
0
 62
1
420
16711680
370
-1
 48
1.0
  6
BYLAYER
100
AcDbLine
 10
155.6782700991342381
 20
-142.8741751144499688
 30
0.0
 11
155.6782700991342381
 21
-140.842335298267443
 31
0.0
  0
LINE
  5
118
100
AcDbEntity
  8
0
 62
1
420
16711680
370
-1
 48
1.0
  6
BYLAYER
100
AcDbLine
 10
123.8387692414814012
 20
-190.1615388407096532
 30
0.0
 11
123.8387692414814012
 21
-192.5216241845468517
 31
0.0
  0
LINE
  5
119
100
AcDbEntity
  8
0
 62
1
420
16711680
370
-1
 48
1.0
  6
BYLAYER
100
AcDbLine
 10
123.8387692414814012
 20
-192.5216241845468517
 30
0.0
 11
110.6203218428272095
 21
-192.5216241845468517
 31
0.0
  0
ARC
  5
11A
100
AcDbEntity
  8
0
 62
1
420
16711680
370
-1
 48
1.0
  6
BYLAYER
100
AcDbCircle
 10
114.930516837799928
 20
-192.3654252598917935
 30
0.0
 40
4.3130243447899943
100
AcDbArc
 50
158.9284351803434561
 51
182.0754570146633284
  0
ARC
  5
11B
100
AcDbEntity
  8
0
 62
1
420
16711680
370
-1
 48
1.0
  6
BYLAYER
100
AcDbCircle
 10
119.3309969938343897
 20
-194.1165536563007095
 30
0.0
 40
9.048992224398674
100
AcDbArc
 50
138.7989970114387859
 51
158.5997345643448568
  0
ARC
  5
11C
100
AcDbEntity
  8
0
 62
1
420
16711680
370
-1
 48
1.0
  6
BYLAYER
100
AcDbCircle
 10
131.4432118936857421
 20
-204.9970085962740427
 30
0.0
 40
25.330103125769579
100
AcDbArc
 50
128.3281308010320743
 51
138.3281792442672895
  0
SPLINE
  5
11D
100
AcDbEntity
  8
0
 62
1
420
16711680
370
-1
 48
1.0
  6
BYLAYER
100
AcDbSpline
 70
8
 71
3
 72
8
 73
4
 74
0
 40
0.0
 40
0.0
 40
0.0
 40
0.0
 40
1.0
 40
1.0
 40
1.0
 40
1.0
 10
115.7343871636872166
 20
-185.1262524464867738
 30
0.0
 10
117.9095608602789298
 20
-183.3449733830806849
 30
0.0
 10
119.3790066724130696
 20
-181.9335176141655381
 30
0.0
 10
120.1427246000896361
 20
-180.8918851397413334
 30
0.0
  0
SPLINE
  5
11E
100
AcDbEntity
  8
0
 62
1
420
16711680
370
-1
 48
1.0
  6
BYLAYER
100
AcDbSpline
 70
8
 71
3
 72
8
 73
4
 74
0
 40
0.0
 40
0.0
 40
0.0
 40
0.0
 40
1.0
 40
1.0
 40
1.0
 40
1.0
 10
120.1427246000896361
 20
-180.8918851397413334
 30
0.0
 10
120.9064425277662025
 20
-179.8502526653171287
 30
0.0
 10
121.2883014916044999
 20
-178.8655160823530821
 30
0.0
 10
121.2883014916044999
 20
-177.9376753908491651
 30
0.0
  0
ARC
  5
11F
100
AcDbEntity
  8
0
 62
1
420
16711680
370
-1
 48
1.0
  6
BYLAYER
100
AcDbCircle
 10
118.0061441973336684
 20
-177.8754990261869011
 30
0.0
 40
3.2827461681735235
100
AcDbArc
 50
358.9147329311700219
 51
47.0117161881951873
  0
SPLINE
  5
120
100
AcDbEntity
  8
0
 62
1
420
16711680
370
-1
 48
1.0
  6
BYLAYER
100
AcDbSpline
 70
8
 71
3
 72
8
 73
4
 74
0
 40
0.0
 40
0.0
 40
0.0
 40
0.0
 40
1.0
 40
1.0
 40
1.0
 40
1.0
 10
120.2444807136625968
 20
-175.4741927058007605
 30
0.0
 10
119.548600195034652
 20
-174.8056659811440454
 30
0.0
 10
118.6415483869488696
 20
-174.4714026188156879
 30
0.0
 10
117.5233252894052498
 20
-174.4714026188156879
 30
0.0
  0
SPLINE
  5
121
100
AcDbEntity
  8
0
 62
1
420
16711680
370
-1
 48
1.0
  6
BYLAYER
100
AcDbSpline
 70
8
 71
3
 72
8
 73
4
 74
0
 40
0.0
 40
0.0
 40
0.0
 40
0.0
 40
1.0
 40
1.0
 40
1.0
 40
1.0
 10
117.5233252894052498
 20
-174.4714026188156879
 30
0.0
 10
116.3394530863306784
 20
-174.4714026188156879
 30
0.0
 10
115.3930118149263393
 20
-174.8264548645621801
 30
0.0
 10
114.6840014751922183
 20
-175.536559356055136
 30
0.0
  0
SPLINE
  5
122
100
AcDbEntity
  8
0
 62
1
420
16711680
370
-1
 48
1.0
  6
BYLAYER
100
AcDbSpline
 70
8
 71
3
 72
8
 73
4
 74
0
 40
0.0
 40
0.0
 40
0.0
 40
0.0
 40
1.0
 40
1.0
 40
1.0
 40
1.0
 10
114.6840014751922183
 20
-175.536559356055136
 30
0.0
 10
113.9749911354580973
 20
-176.2466638475481204
 30
0.0
 10
113.616109358555633
 20
-177.2286650511150583
 30
0.0
 10
113.6073561444848536
 20
-178.4825629667559497
 30
0.0
  0
LINE
  5
123
100
AcDbEntity
  8
0
 62
1
420
16711680
370
-1
 48
1.0
  6
BYLAYER
100
AcDbLine
 10
113.6073561444848536
 20
-178.4825629667559497
 30
0.0
 11
111.0831480368203188
 21
-178.2232489999087477
 31
0.0
  0
SPLINE
  5
124
100
AcDbEntity
  8
0
 62
1
420
16711680
370
-1
 48
1.0
  6
BYLAYER
100
AcDbSpline
 70
8
 71
3
 72
8
 73
4
 74
0
 40
0.0
 40
0.0
 40
0.0
 40
0.0
 40
1.0
 40
1.0
 40
1.0
 40
1.0
 10
111.0831480368203188
 20
-178.2232489999087477
 30
0.0
 10
111.2560240147184487
 20
-176.3413079746885614
 30
0.0
 10
111.9064972353541521
 20
-174.9068750188375816
 30
0.0
 10
113.0345676987274146
 20
-173.9199501323558081
 30
0.0
  0
SPLINE
  5
125
100
AcDbEntity
  8
0
 62
1
420
16711680
370
-1
 48
1.0
  6
BYLAYER
100
AcDbSpline
 70
8
 71
3
 72
8
 73
4
 74
0
 40
0.0
 40
0.0
 40
0.0
 40
0.0
 40
1.0
 40
1.0
 40
1.0
 40
1.0
 10
113.0345676987274146
 20
-173.9199501323558081
 30
0.0
 10
114.1626381621006914
 20
-172.9330252458740631
 30
0.0
 10
115.6763971204682093
 20
-172.4395628026331906
 30
0.0
 10
117.5758445738299969
 20
-172.4395628026331906
 30
0.0
  0
SPLINE
  5
126
100
AcDbEntity
  8
0
 62
1
420
16711680
370
-1
 48
1.0
  6
BYLAYER
100
AcDbSpline
 70
8
 71
3
 72
8
 73
4
 74
0
 40
0.0
 40
0.0
 40
0.0
 40
0.0
 40
1.0
 40
1.0
 40
1.0
 40
1.0
 10
117.5758445738299969
 20
-172.4395628026331906
 30
0.0
 10
119.4949867588510557
 20
-172.4395628026331906
 30
0.0
 10
121.0142164760128338
 20
-172.9718676333131953
 30
0.0
 10
122.133533725315317
 20
-174.036477294673233
 30
0.0
  0
ARC
  5
127
100
AcDbEntity
  8
0
 62
1
420
16711680
370
-1
 48
1.0
  6
BYLAYER
100
AcDbCircle
 10
118.572552484412455
 20
-177.8821194643624324
 30
0.0
 40
5.2411402476326456
100
AcDbArc
 50
358.7825541527015503
 51
47.2009822132892864
  0
ARC
  5
128
100
AcDbEntity
  8
0
 62
1
420
16711680
370
-1
 48
1.0
  6
BYLAYER
100
AcDbCircle
 10
117.8082951822362503
 20
-177.9744414192357738
 30
0.0
 40
6.0042445922871455
100
AcDbArc
 50
336.6737330126128427
 51
359.8183505470647674
  0
ARC
  5
129
100
AcDbEntity
  8
0
 62
1
420
16711680
370
-1
 48
1.0
  6
BYLAYER
100
AcDbCircle
 10
115.0199299387028162
 20
-176.5721575896398576
 30
0.0
 40
9.121807377998806
100
AcDbArc
 50
316.9926761128245403
 51
335.5206251098651364
  0
SPLINE
  5
12A
100
AcDbEntity
  8
0
 62
1
420
16711680
370
-1
 48
1.0
  6
BYLAYER
100
AcDbSpline
 70
8
 71
3
 72
8
 73
4
 74
0
 40
0.0
 40
0.0
 40
0.0
 40
0.0
 40
1.0
 40
1.0
 40
1.0
 40
1.0
 10
121.690402262981479
 20
-182.794067972500244
 30
0.0
 10
120.9299667905814601
 20
-183.648600496161265
 30
0.0
 10
119.6678627367491998
 20
-184.8220782575267833
 30
0.0
 10
117.9040901014846838
 20
-186.314501256596742
 30
0.0
  0
ARC
  5
12B
100
AcDbEntity
  8
0
 62
1
420
16711680
370
-1
 48
1.0
  6
BYLAYER
100
AcDbCircle
 10
145.0277380401836069
 20
-219.7642595029797405
 30
0.0
 40
43.0648186370725909
100
AcDbArc
 50
129.0378095429726955
 51
134.0851288803693251
  0
ARC
  5
12C
100
AcDbEntity
  8
0
 62
1
420
16711680
370
-1
 48
1.0
  6
BYLAYER
100
AcDbCircle
 10
120.7601755539893844
 20
-194.3289483472005088
 30
0.0
 40
7.9152948923541366
100
AcDbArc
 50
135.9998060933421584
 51
148.2306650547996867
  0
LINE
  5
12D
100
AcDbEntity
  8
0
 62
1
420
16711680
370
-1
 48
1.0
  6
BYLAYER
100
AcDbLine
 10
114.030792875159392
 20
-190.1615388407096532
 30
0.0
 11
123.8387692414814012
 21
-190.1615388407096532
 31
0.0
  0
LINE
  5
12E
100
AcDbEntity
  8
0
 62
1
420
16711680
370
-1
 48
1.0
  6
BYLAYER
100
AcDbLine
 10
134.9925522711876056
 20
-178.0328665938690165
 30
0.0
 11
137.4478288180446839
 21
-178.0328665938690165
 31
0.0
  0
LINE
  5
12F
100
AcDbEntity
  8
0
 62
1
420
16711680
370
-1
 48
1.0
  6
BYLAYER
100
AcDbLine
 10
137.4478288180446839
 20
-178.0328665938690165
 30
0.0
 11
137.4478288180446839
 21
-190.4897843683643543
 31
0.0
  0
LINE
  5
130
100
AcDbEntity
  8
0
 62
1
420
16711680
370
-1
 48
1.0
  6
BYLAYER
100
AcDbLine
 10
137.4478288180446839
 20
-190.4897843683643543
 30
0.0
 11
143.0411326092805098
 21
-190.4897843683643543
 31
0.0
  0
LINE
  5
131
100
AcDbEntity
  8
0
 62
1
420
16711680
370
-1
 48
1.0
  6
BYLAYER
100
AcDbLine
 10
143.0411326092805098
 20
-190.4897843683643543
 30
0.0
 11
143.0411326092805098
 21
-178.0328665938690165
 31
0.0
  0
LINE
  5
132
100
AcDbEntity
  8
0
 62
1
420
16711680
370
-1
 48
1.0
  6
BYLAYER
100
AcDbLine
 10
143.0411326092805098
 20
-178.0328665938690165
 30
0.0
 11
145.4964091561375596
 21
-178.0328665938690165
 31
0.0
  0
LINE
  5
133
100
AcDbEntity
  8
0
 62
1
420
16711680
370
-1
 48
1.0
  6
BYLAYER
100
AcDbLine
 10
145.4964091561375596
 20
-178.0328665938690165
 30
0.0
 11
145.4964091561375596
 21
-190.4897843683643543
 31
0.0
  0
LINE
  5
134
100
AcDbEntity
  8
0
 62
1
420
16711680
370
-1
 48
1.0
  6
BYLAYER
100
AcDbLine
 10
145.4964091561375596
 20
-190.4897843683643543
 30
0.0
 11
151.1061252237561519
 21
-190.4897843683643543
 31
0.0
  0
LINE
  5
135
100
AcDbEntity
  8
0
 62
1
420
16711680
370
-1
 48
1.0
  6
BYLAYER
100
AcDbLine
 10
151.1061252237561519
 20
-190.4897843683643543
 30
0.0
 11
151.1061252237561519
 21
-178.0328665938690165
 31
0.0
  0
LINE
  5
136
100
AcDbEntity
  8
0
 62
1
420
16711680
370
-1
 48
1.0
  6
BYLAYER
100
AcDbLine
 10
151.1061252237561519
 20
-178.0328665938690165
 30
0.0
 11
153.5482719495070114
 21
-178.0328665938690165
 31
0.0
  0
LINE
  5
137
100
AcDbEntity
  8
0
 62
1
420
16711680
370
-1
 48
1.0
  6
BYLAYER
100
AcDbLine
 10
153.5482719495070114
 20
-178.0328665938690165
 30
0.0
 11
153.5482719495070114
 21
-192.5216241845468517
 31
0.0
  0
LINE
  5
138
100
AcDbEntity
  8
0
 62
1
420
16711680
370
-1
 48
1.0
  6
BYLAYER
100
AcDbLine
 10
153.5482719495070114
 20
-192.5216241845468517
 30
0.0
 11
134.9925522711876056
 21
-192.5216241845468517
 31
0.0
  0
LINE
  5
139
100
AcDbEntity
  8
0
 62
1
420
16711680
370
-1
 48
1.0
  6
BYLAYER
100
AcDbLine
 10
134.9925522711876056
 20
-192.5216241845468517
 30
0.0
 11
134.9925522711876056
 21
-178.0328665938690165
 31
0.0
  0
LINE
  5
13A
100
AcDbEntity
  8
0
 62
1
420
16711680
370
-1
 48
1.0
  6
BYLAYER
100
AcDbLine
 10
156.0002660410875137
 20
-178.0328665938690165
 30
0.0
 11
167.7744331180610686
 21
-178.0328665938690165
 31
0.0
  0
LINE
  5
13B
100
AcDbEntity
  8
0
 62
1
420
16711680
370
-1
 48
1.0
  6
BYLAYER
100
AcDbLine
 10
167.7744331180610686
 20
-178.0328665938690165
 30
0.0
 11
167.7744331180610686
 21
-180.0647064100515422
 31
0.0
  0
LINE
  5
13C
100
AcDbEntity
  8
0
 62
1
420
16711680
370
-1
 48
1.0
  6
BYLAYER
100
AcDbLine
 10
167.7744331180610686
 20
-180.0647064100515422
 30
0.0
 11
163.1067817148114614
 21
-180.0647064100515422
 31
0.0
  0
LINE
  5
13D
100
AcDbEntity
  8
0
 62
1
420
16711680
370
-1
 48
1.0
  6
BYLAYER
100
AcDbLine
 10
163.1067817148114614
 20
-180.0647064100515422
 30
0.0
 11
163.1067817148114614
 21
-192.5216241845468517
 31
0.0
  0
LINE
  5
13E
100
AcDbEntity
  8
0
 62
1
420
16711680
370
-1
 48
1.0
  6
BYLAYER
100
AcDbLine
 10
163.1067817148114614
 20
-192.5216241845468517
 30
0.0
 11
160.6646349890605734
 21
-192.5216241845468517
 31
0.0
  0
LINE
  5
13F
100
AcDbEntity
  8
0
 62
1
420
16711680
370
-1
 48
1.0
  6
BYLAYER
100
AcDbLine
 10
160.6646349890605734
 20
-192.5216241845468517
 30
0.0
 11
160.6646349890605734
 21
-180.0647064100515422
 31
0.0
  0
LINE
  5
140
100
AcDbEntity
  8
0
 62
1
420
16711680
370
-1
 48
1.0
  6
BYLAYER
100
AcDbLine
 10
160.6646349890605734
 20
-180.0647064100515422
 30
0.0
 11
156.0002660410875137
 21
-180.0647064100515422
 31
0.0
  0
LINE
  5
141
100
AcDbEntity
  8
0
 62
1
420
16711680
370
-1
 48
1.0
  6
BYLAYER
100
AcDbLine
 10
156.0002660410875137
 20
-180.0647064100515422
 30
0.0
 11
156.0002660410875137
 21
-178.0328665938690165
 31
0.0
  0
LINE
  5
142
100
AcDbEntity
  8
0
 62
256
370
-1
 48
1.0
  6
BYLAYER
100
AcDbLine
 10
910.0
 20
-117.0
 30
0.0
 11
490.0
 21
-117.0
 31
0.0
  0
LINE
  5
143
100
AcDbEntity
  8
0
 62
1
420
16711680
370
-1
 48
1.0
  6
BYLAYER
100
AcDbLine
 10
627.9148326543652274
 20
-319.8872733222459601
 30
0.0
 11
627.9148326543652274
 21
-322.247358666083187
 31
0.0
  0
LINE
  5
144
100
AcDbEntity
  8
0
 62
1
420
16711680
370
-1
 48
1.0
  6
BYLAYER
100
AcDbLine
 10
627.9148326543652274
 20
-322.247358666083187
 30
0.0
 11
614.6963852557111068
 21
-322.247358666083187
 31
0.0
  0
ARC
  5
145
100
AcDbEntity
  8
0
 62
1
420
16711680
370
-1
 48
1.0
  6
BYLAYER
100
AcDbCircle
 10
619.0065802506837827
 20
-322.0911597414281005
 30
0.0
 40
4.3130243447899943
100
AcDbArc
 50
158.9284351803434561
 51
182.0754570146633284
  0
ARC
  5
146
100
AcDbEntity
  8
0
 62
1
420
16711680
370
-1
 48
1.0
  6
BYLAYER
100
AcDbCircle
 10
623.4070604067183012
 20
-323.8422881378370448
 30
0.0
 40
9.048992224398674
100
AcDbArc
 50
138.7989970114387859
 51
158.5997345643448568
  0
ARC
  5
147
100
AcDbEntity
  8
0
 62
1
420
16711680
370
-1
 48
1.0
  6
BYLAYER
100
AcDbCircle
 10
635.5192753065696252
 20
-334.7227430778103781
 30
0.0
 40
25.330103125769579
100
AcDbArc
 50
128.3281308010320743
 51
138.3281792442672895
  0
SPLINE
  5
148
100
AcDbEntity
  8
0
 62
1
420
16711680
370
-1
 48
1.0
  6
BYLAYER
100
AcDbSpline
 70
8
 71
3
 72
8
 73
4
 74
0
 40
0.0
 40
0.0
 40
0.0
 40
0.0
 40
1.0
 40
1.0
 40
1.0
 40
1.0
 10
619.8104505765710428
 20
-314.8519869280230523
 30
0.0
 10
621.9856242731627844
 20
-313.0707078646170203
 30
0.0
 10
623.4550700852969385
 20
-311.6592520957018451
 30
0.0
 10
624.2187880129735049
 20
-310.6176196212776404
 30
0.0
  0
SPLINE
  5
149
100
AcDbEntity
  8
0
 62
1
420
16711680
370
-1
 48
1.0
  6
BYLAYER
100
AcDbSpline
 70
8
 71
3
 72
8
 73
4
 74
0
 40
0.0
 40
0.0
 40
0.0
 40
0.0
 40
1.0
 40
1.0
 40
1.0
 40
1.0
 10
624.2187880129735049
 20
-310.6176196212776404
 30
0.0
 10
624.9825059406500714
 20
-309.5759871468534357
 30
0.0
 10
625.3643649044884114
 20
-308.591250563889389
 30
0.0
 10
625.3643649044884114
 20
-307.6634098723855004
 30
0.0
  0
ARC
  5
14A
100
AcDbEntity
  8
0
 62
1
420
16711680
370
-1
 48
1.0
  6
BYLAYER
100
AcDbCircle
 10
622.0822076102175515
 20
-307.6012335077232365
 30
0.0
 40
3.2827461681735235
100
AcDbArc
 50
358.9147329311700219
 51
47.0117161881951873
  0
SPLINE
  5
14B
100
AcDbEntity
  8
0
 62
1
420
16711680
370
-1
 48
1.0
  6
BYLAYER
100
AcDbSpline
 70
8
 71
3
 72
8
 73
4
 74
0
 40
0.0
 40
0.0
 40
0.0
 40
0.0
 40
1.0
 40
1.0
 40
1.0
 40
1.0
 10
624.3205441265464515
 20
-305.199927187337039
 30
0.0
 10
623.6246636079184782
 20
-304.5314004626803808
 30
0.0
 10
622.7176117998327527
 20
-304.1971371003519948
 30
0.0
 10
621.5993887022891613
 20
-304.1971371003519948
 30
0.0
  0
SPLINE
  5
14C
100
AcDbEntity
  8
0
 62
1
420
16711680
370
-1
 48
1.0
  6
BYLAYER
100
AcDbSpline
 70
8
 71
3
 72
8
 73
4
 74
0
 40
0.0
 40
0.0
 40
0.0
 40
0.0
 40
1.0
 40
1.0
 40
1.0
 40
1.0
 10
621.5993887022891613
 20
-304.1971371003519948
 30
0.0
 10
620.4155164992145046
 20
-304.1971371003519948
 30
0.0
 10
619.4690752278102082
 20
-304.552189346098487
 30
0.0
 10
618.7600648880760446
 20
-305.2622938375914146
 30
0.0
  0
SPLINE
  5
14D
100
AcDbEntity
  8
0
 62
1
420
16711680
370
-1
 48
1.0
  6
BYLAYER
100
AcDbSpline
 70
8
 71
3
 72
8
 73
4
 74
0
 40
0.0
 40
0.0
 40
0.0
 40
0.0
 40
1.0
 40
1.0
 40
1.0
 40
1.0
 10
618.7600648880760446
 20
-305.2622938375914146
 30
0.0
 10
618.0510545483419946
 20
-305.9723983290843989
 30
0.0
 10
617.6921727714394592
 20
-306.9543995326513368
 30
0.0
 10
617.6834195573686657
 20
-308.2082974482922282
 30
0.0
  0
LINE
  5
14E
100
AcDbEntity
  8
0
 62
1
420
16711680
370
-1
 48
1.0
  6
BYLAYER
100
AcDbLine
 10
617.6834195573686657
 20
-308.2082974482922282
 30
0.0
 11
615.1592114497041166
 21
-307.9489834814450546
 31
0.0
  0
SPLINE
  5
14F
100
AcDbEntity
  8
0
 62
1
420
16711680
370
-1
 48
1.0
  6
BYLAYER
100
AcDbSpline
 70
8
 71
3
 72
8
 73
4
 74
0
 40
0.0
 40
0.0
 40
0.0
 40
0.0
 40
1.0
 40
1.0
 40
1.0
 40
1.0
 10
615.1592114497041166
 20
-307.9489834814450546
 30
0.0
 10
615.332087427602346
 20
-306.06704245622484
 30
0.0
 10
615.9825606482379499
 20
-304.6326095003738601
 30
0.0
 10
617.1106311116112693
 20
-303.6456846138921151
 30
0.0
  0
SPLINE
  5
150
100
AcDbEntity
  8
0
 62
1
420
16711680
370
-1
 48
1.0
  6
BYLAYER
100
AcDbSpline
 70
8
 71
3
 72
8
 73
4
 74
0
 40
0.0
 40
0.0
 40
0.0
 40
0.0
 40
1.0
 40
1.0
 40
1.0
 40
1.0
 10
617.1106311116112693
 20
-303.6456846138921151
 30
0.0
 10
618.2387015749845887
 20
-302.65875972741037
 30
0.0
 10
619.752460533352064
 20
-302.1652972841694691
 30
0.0
 10
621.6519079867138089
 20
-302.1652972841694691
 30
0.0
  0
SPLINE
  5
151
100
AcDbEntity
  8
0
 62
1
420
16711680
370
-1
 48
1.0
  6
BYLAYER
100
AcDbSpline
 70
8
 71
3
 72
8
 73
4
 74
0
 40
0.0
 40
0.0
 40
0.0
 40
0.0
 40
1.0
 40
1.0
 40
1.0
 40
1.0
 10
621.6519079867138089
 20
-302.1652972841694691
 30
0.0
 10
623.5710501717348961
 20
-302.1652972841694691
 30
0.0
 10
625.0902798888967027
 20
-302.6976021148494738
 30
0.0
 10
626.2095971381991149
 20
-303.7622117762095399
 30
0.0
  0
ARC
  5
152
100
AcDbEntity
  8
0
 62
1
420
16711680
370
-1
 48
1.0
  6
BYLAYER
100
AcDbCircle
 10
622.6486158972962812
 20
-307.6078539458987393
 30
0.0
 40
5.2411402476326456
100
AcDbArc
 50
358.7825541527015503
 51
47.2009822132892864
  0
ARC
  5
153
100
AcDbEntity
  8
0
 62
1
420
16711680
370
-1
 48
1.0
  6
BYLAYER
100
AcDbCircle
 10
621.8843585951201476
 20
-307.7001759007720807
 30
0.0
 40
6.0042445922871455
100
AcDbArc
 50
336.6737330126128427
 51
359.8183505470647674
  0
ARC
  5
154
100
AcDbEntity
  8
0
 62
1
420
16711680
370
-1
 48
1.0
  6
BYLAYER
100
AcDbCircle
 10
619.0959933515866851
 20
-306.297892071176193
 30
0.0
 40
9.121807377998806
100
AcDbArc
 50
316.9926761128245403
 51
335.5206251098651364
  0
SPLINE
  5
155
100
AcDbEntity
  8
0
 62
1
420
16711680
370
-1
 48
1.0
  6
BYLAYER
100
AcDbSpline
 70
8
 71
3
 72
8
 73
4
 74
0
 40
0.0
 40
0.0
 40
0.0
 40
0.0
 40
1.0
 40
1.0
 40
1.0
 40
1.0
 10
625.7664656758653337
 20
-312.5198024540365509
 30
0.0
 10
625.0060302034653432
 20
-313.374334977697572
 30
0.0
 10
623.7439261496330118
 20
-314.5478127390630902
 30
0.0
 10
621.9801535143685669
 20
-316.0402357381330489
 30
0.0
  0
ARC
  5
156
100
AcDbEntity
  8
0
 62
1
420
16711680
370
-1
 48
1.0
  6
BYLAYER
100
AcDbCircle
 10
649.10380145306749
 20
-349.4899939845160475
 30
0.0
 40
43.0648186370725909
100
AcDbArc
 50
129.0378095429726955
 51
134.0851288803693251
  0
ARC
  5
157
100
AcDbEntity
  8
0
 62
1
420
16711680
370
-1
 48
1.0
  6
BYLAYER
100
AcDbCircle
 10
624.8362389668732249
 20
-324.0546828287368157
 30
0.0
 40
7.9152948923541366
100
AcDbArc
 50
135.9998060933421584
 51
148.2306650547996867
  0
LINE
  5
158
100
AcDbEntity
  8
0
 62
1
420
16711680
370
-1
 48
1.0
  6
BYLAYER
100
AcDbLine
 10
618.1068562880432182
 20
-319.8872733222459601
 30
0.0
 11
627.9148326543652274
 21
-319.8872733222459601
 31
0.0
  0
LINE
  5
159
100
AcDbEntity
  8
0
 62
1
420
16711680
370
-1
 48
1.0
  6
BYLAYER
100
AcDbLine
 10
639.0686156840714602
 20
-307.758601075405295
 30
0.0
 11
641.5238922309285954
 21
-307.758601075405295
 31
0.0
  0
LINE
  5
15A
100
AcDbEntity
  8
0
 62
1
420
16711680
370
-1
 48
1.0
  6
BYLAYER
100
AcDbLine
 10
641.5238922309285954
 20
-307.758601075405295
 30
0.0
 11
641.5238922309285954
 21
-320.2155188499006613
 31
0.0
  0
LINE
  5
15B
100
AcDbEntity
  8
0
 62
1
420
16711680
370
-1
 48
1.0
  6
BYLAYER
100
AcDbLine
 10
641.5238922309285954
 20
-320.2155188499006613
 30
0.0
 11
647.1171960221643076
 21
-320.2155188499006613
 31
0.0
  0
LINE
  5
15C
100
AcDbEntity
  8
0
 62
1
420
16711680
370
-1
 48
1.0
  6
BYLAYER
100
AcDbLine
 10
647.1171960221643076
 20
-320.2155188499006613
 30
0.0
 11
647.1171960221643076
 21
-307.758601075405295
 31
0.0
  0
LINE
  5
15D
100
AcDbEntity
  8
0
 62
1
420
16711680
370
-1
 48
1.0
  6
BYLAYER
100
AcDbLine
 10
647.1171960221643076
 20
-307.758601075405295
 30
0.0
 11
649.5724725690214427
 21
-307.758601075405295
 31
0.0
  0
LINE
  5
15E
100
AcDbEntity
  8
0
 62
1
420
16711680
370
-1
 48
1.0
  6
BYLAYER
100
AcDbLine
 10
649.5724725690214427
 20
-307.758601075405295
 30
0.0
 11
649.5724725690214427
 21
-320.2155188499006613
 31
0.0
  0
LINE
  5
15F
100
AcDbEntity
  8
0
 62
1
420
16711680
370
-1
 48
1.0
  6
BYLAYER
100
AcDbLine
 10
649.5724725690214427
 20
-320.2155188499006613
 30
0.0
 11
655.1821886366400349
 21
-320.2155188499006613
 31
0.0
  0
LINE
  5
160
100
AcDbEntity
  8
0
 62
1
420
16711680
370
-1
 48
1.0
  6
BYLAYER
100
AcDbLine
 10
655.1821886366400349
 20
-320.2155188499006613
 30
0.0
 11
655.1821886366400349
 21
-307.758601075405295
 31
0.0
  0
LINE
  5
161
100
AcDbEntity
  8
0
 62
1
420
16711680
370
-1
 48
1.0
  6
BYLAYER
100
AcDbLine
 10
655.1821886366400349
 20
-307.758601075405295
 30
0.0
 11
657.6243353623908661
 21
-307.758601075405295
 31
0.0
  0
LINE
  5
162
100
AcDbEntity
  8
0
 62
1
420
16711680
370
-1
 48
1.0
  6
BYLAYER
100
AcDbLine
 10
657.6243353623908661
 20
-307.758601075405295
 30
0.0
 11
657.6243353623908661
 21
-322.247358666083187
 31
0.0
  0
LINE
  5
163
100
AcDbEntity
  8
0
 62
1
420
16711680
370
-1
 48
1.0
  6
BYLAYER
100
AcDbLine
 10
657.6243353623908661
 20
-322.247358666083187
 30
0.0
 11
639.0686156840714602
 21
-322.247358666083187
 31
0.0
  0
LINE
  5
164
100
AcDbEntity
  8
0
 62
1
420
16711680
370
-1
 48
1.0
  6
BYLAYER
100
AcDbLine
 10
639.0686156840714602
 20
-322.247358666083187
 30
0.0
 11
639.0686156840714602
 21
-307.758601075405295
 31
0.0
  0
LINE
  5
165
100
AcDbEntity
  8
0
 62
1
420
16711680
370
-1
 48
1.0
  6
BYLAYER
100
AcDbLine
 10
660.0763294539713115
 20
-307.758601075405295
 30
0.0
 11
671.8504965309449517
 21
-307.758601075405295
 31
0.0
  0
LINE
  5
166
100
AcDbEntity
  8
0
 62
1
420
16711680
370
-1
 48
1.0
  6
BYLAYER
100
AcDbLine
 10
671.8504965309449517
 20
-307.758601075405295
 30
0.0
 11
671.8504965309449517
 21
-309.7904408915878776
 31
0.0
  0
LINE
  5
167
100
AcDbEntity
  8
0
 62
1
420
16711680
370
-1
 48
1.0
  6
BYLAYER
100
AcDbLine
 10
671.8504965309449517
 20
-309.7904408915878776
 30
0.0
 11
667.1828451276953729
 21
-309.7904408915878776
 31
0.0
  0
LINE
  5
168
100
AcDbEntity
  8
0
 62
1
420
16711680
370
-1
 48
1.0
  6
BYLAYER
100
AcDbLine
 10
667.1828451276953729
 20
-309.7904408915878776
 30
0.0
 11
667.1828451276953729
 21
-322.247358666083187
 31
0.0
  0
LINE
  5
169
100
AcDbEntity
  8
0
 62
1
420
16711680
370
-1
 48
1.0
  6
BYLAYER
100
AcDbLine
 10
667.1828451276953729
 20
-322.247358666083187
 30
0.0
 11
664.740698401944428
 21
-322.247358666083187
 31
0.0
  0
LINE
  5
16A
100
AcDbEntity
  8
0
 62
1
420
16711680
370
-1
 48
1.0
  6
BYLAYER
100
AcDbLine
 10
664.740698401944428
 20
-322.247358666083187
 30
0.0
 11
664.740698401944428
 21
-309.7904408915878776
 31
0.0
  0
LINE
  5
16B
100
AcDbEntity
  8
0
 62
1
420
16711680
370
-1
 48
1.0
  6
BYLAYER
100
AcDbLine
 10
664.740698401944428
 20
-309.7904408915878776
 30
0.0
 11
660.0763294539713115
 21
-309.7904408915878776
 31
0.0
  0
LINE
  5
16C
100
AcDbEntity
  8
0
 62
1
420
16711680
370
-1
 48
1.0
  6
BYLAYER
100
AcDbLine
 10
660.0763294539713115
 20
-309.7904408915878776
 30
0.0
 11
660.0763294539713115
 21
-307.758601075405295
 31
0.0
  0
LINE
  5
16D
100
AcDbEntity
  8
0
 62
1
420
16711680
370
-1
 48
1.0
  6
BYLAYER
100
AcDbLine
 10
587.4775415729903898
 20
-203.1477012383771807
 30
0.0
 11
587.4775415729903898
 21
-205.5077865822143792
 31
0.0
  0
LINE
  5
16E
100
AcDbEntity
  8
0
 62
1
420
16711680
370
-1
 48
1.0
  6
BYLAYER
100
AcDbLine
 10
587.4775415729903898
 20
-205.5077865822143792
 30
0.0
 11
574.2590941743362691
 21
-205.5077865822143792
 31
0.0
  0
ARC
  5
16F
100
AcDbEntity
  8
0
 62
1
420
16711680
370
-1
 48
1.0
  6
BYLAYER
100
AcDbCircle
 10
578.569289169308945
 20
-205.3515876575593211
 30
0.0
 40
4.3130243447899943
100
AcDbArc
 50
158.9284351803434561
 51
182.0754570146633284
  0
ARC
  5
170
100
AcDbEntity
  8
0
 62
1
420
16711680
370
-1
 48
1.0
  6
BYLAYER
100
AcDbCircle
 10
582.9697693253433499
 20
-207.102716053968237
 30
0.0
 40
9.048992224398674
100
AcDbArc
 50
138.7989970114387859
 51
158.5997345643448568
  0
ARC
  5
171
100
AcDbEntity
  8
0
 62
1
420
16711680
370
-1
 48
1.0
  6
BYLAYER
100
AcDbCircle
 10
595.0819842251947875
 20
-217.9831709939415703
 30
0.0
 40
25.330103125769579
100
AcDbArc
 50
128.3281308010320743
 51
138.3281792442672895
  0
SPLINE
  5
172
100
AcDbEntity
  8
0
 62
1
420
16711680
370
-1
 48
1.0
  6
BYLAYER
100
AcDbSpline
 70
8
 71
3
 72
8
 73
4
 74
0
 40
0.0
 40
0.0
 40
0.0
 40
0.0
 40
1.0
 40
1.0
 40
1.0
 40
1.0
 10
579.3731594951962052
 20
-198.1124148441543014
 30
0.0
 10
581.5483331917879468
 20
-196.3311357807482125
 30
0.0
 10
583.0177790039221009
 20
-194.9196800118330657
 30
0.0
 10
583.7814969315986673
 20
-193.878047537408861
 30
0.0
  0
SPLINE
  5
173
100
AcDbEntity
  8
0
 62
1
420
16711680
370
-1
 48
1.0
  6
BYLAYER
100
AcDbSpline
 70
8
 71
3
 72
8
 73
4
 74
0
 40
0.0
 40
0.0
 40
0.0
 40
0.0
 40
1.0
 40
1.0
 40
1.0
 40
1.0
 10
583.7814969315986673
 20
-193.878047537408861
 30
0.0
 10
584.5452148592752337
 20
-192.8364150629846563
 30
0.0
 10
584.9270738231134601
 20
-191.8516784800206096
 30
0.0
 10
584.9270738231134601
 20
-190.9238377885166926
 30
0.0
  0
ARC
  5
174
100
AcDbEntity
  8
0
 62
1
420
16711680
370
-1
 48
1.0
  6
BYLAYER
100
AcDbCircle
 10
581.6449165288427139
 20
-190.8616614238544287
 30
0.0
 40
3.2827461681735235
100
AcDbArc
 50
358.9147329311700219
 51
47.0117161881951873
  0
SPLINE
  5
175
100
AcDbEntity
  8
0
 62
1
420
16711680
370
-1
 48
1.0
  6
BYLAYER
100
AcDbSpline
 70
8
 71
3
 72
8
 73
4
 74
0
 40
0.0
 40
0.0
 40
0.0
 40
0.0
 40
1.0
 40
1.0
 40
1.0
 40
1.0
 10
583.8832530451716138
 20
-188.460355103468288
 30
0.0
 10
583.1873725265436406
 20
-187.791828378811573
 30
0.0
 10
582.2803207184579151
 20
-187.4575650164832155
 30
0.0
 10
581.16209762091421
 20
-187.4575650164832155
 30
0.0
  0
SPLINE
  5
176
100
AcDbEntity
  8
0
 62
1
420
16711680
370
-1
 48
1.0
  6
BYLAYER
100
AcDbSpline
 70
8
 71
3
 72
8
 73
4
 74
0
 40
0.0
 40
0.0
 40
0.0
 40
0.0
 40
1.0
 40
1.0
 40
1.0
 40
1.0
 10
581.16209762091421
 20
-187.4575650164832155
 30
0.0
 10
579.978225417839667
 20
-187.4575650164832155
 30
0.0
 10
579.0317841464353705
 20
-187.8126172622297076
 30
0.0
 10
578.3227738067012069
 20
-188.5227217537226636
 30
0.0
  0
SPLINE
  5
177
100
AcDbEntity
  8
0
 62
1
420
16711680
370
-1
 48
1.0
  6
BYLAYER
100
AcDbSpline
 70
8
 71
3
 72
8
 73
4
 74
0
 40
0.0
 40
0.0
 40
0.0
 40
0.0
 40
1.0
 40
1.0
 40
1.0
 40
1.0
 10
578.3227738067012069
 20
-188.5227217537226636
 30
0.0
 10
577.613763466967157
 20
-189.232826245215648
 30
0.0
 10
577.2548816900646216
 20
-190.2148274487825859
 30
0.0
 10
577.246128475993828
 20
-191.4687253644234772
 30
0.0
  0
LINE
  5
178
100
AcDbEntity
  8
0
 62
1
420
16711680
370
-1
 48
1.0
  6
BYLAYER
100
AcDbLine
 10
577.246128475993828
 20
-191.4687253644234772
 30
0.0
 11
574.7219203683293927
 21
-191.2094113975762752
 31
0.0
  0
SPLINE
  5
179
100
AcDbEntity
  8
0
 62
1
420
16711680
370
-1
 48
1.0
  6
BYLAYER
100
AcDbSpline
 70
8
 71
3
 72
8
 73
4
 74
0
 40
0.0
 40
0.0
 40
0.0
 40
0.0
 40
1.0
 40
1.0
 40
1.0
 40
1.0
 10
574.7219203683293927
 20
-191.2094113975762752
 30
0.0
 10
574.8947963462275084
 20
-189.327470372356089
 30
0.0
 10
575.5452695668632259
 20
-187.8930374165051091
 30
0.0
 10
576.6733400302364316
 20
-186.9061125300233357
 30
0.0
  0
SPLINE
  5
17A
100
AcDbEntity
  8
0
 62
1
420
16711680
370
-1
 48
1.0
  6
BYLAYER
100
AcDbSpline
 70
8
 71
3
 72
8
 73
4
 74
0
 40
0.0
 40
0.0
 40
0.0
 40
0.0
 40
1.0
 40
1.0
 40
1.0
 40
1.0
 10
576.6733400302364316
 20
-186.9061125300233357
 30
0.0
 10
577.801410493609751
 20
-185.9191876435415907
 30
0.0
 10
579.3151694519772263
 20
-185.4257252003007181
 30
0.0
 10
581.2146169053389713
 20
-185.4257252003007181
 30
0.0
  0
SPLINE
  5
17B
100
AcDbEntity
  8
0
 62
1
420
16711680
370
-1
 48
1.0
  6
BYLAYER
100
AcDbSpline
 70
8
 71
3
 72
8
 73
4
 74
0
 40
0.0
 40
0.0
 40
0.0
 40
0.0
 40
1.0
 40
1.0
 40
1.0
 40
1.0
 10
581.2146169053389713
 20
-185.4257252003007181
 30
0.0
 10
583.1337590903600585
 20
-185.4257252003007181
 30
0.0
 10
584.6529888075218651
 20
-185.9580300309807228
 30
0.0
 10
585.7723060568243909
 20
-187.0226396923407606
 30
0.0
  0
ARC
  5
17C
100
AcDbEntity
  8
0
 62
1
420
16711680
370
-1
 48
1.0
  6
BYLAYER
100
AcDbCircle
 10
582.2113248159214436
 20
-190.8682818620299599
 30
0.0
 40
5.2411402476326456
100
AcDbArc
 50
358.7825541527015503
 51
47.2009822132892864
  0
ARC
  5
17D
100
AcDbEntity
  8
0
 62
1
420
16711680
370
-1
 48
1.0
  6
BYLAYER
100
AcDbCircle
 10
581.44706751374531
 20
-190.9606038169033013
 30
0.0
 40
6.0042445922871455
100
AcDbArc
 50
336.6737330126128427
 51
359.8183505470647674
  0
ARC
  5
17E
100
AcDbEntity
  8
0
 62
1
420
16711680
370
-1
 48
1.0
  6
BYLAYER
100
AcDbCircle
 10
578.6587022702118475
 20
-189.5583199873073852
 30
0.0
 40
9.121807377998806
100
AcDbArc
 50
316.9926761128245403
 51
335.5206251098651364
  0
SPLINE
  5
17F
100
AcDbEntity
  8
0
 62
1
420
16711680
370
-1
 48
1.0
  6
BYLAYER
100
AcDbSpline
 70
8
 71
3
 72
8
 73
4
 74
0
 40
0.0
 40
0.0
 40
0.0
 40
0.0
 40
1.0
 40
1.0
 40
1.0
 40
1.0
 10
585.329174594490496
 20
-195.7802303701677715
 30
0.0
 10
584.5687391220905056
 20
-196.6347628938287926
 30
0.0
 10
583.3066350682581742
 20
-197.8082406551943109
 30
0.0
 10
581.5428624329937293
 20
-199.3006636542642696
 30
0.0
  0
ARC
  5
180
100
AcDbEntity
  8
0
 62
1
420
16711680
370
-1
 48
1.0
  6
BYLAYER
100
AcDbCircle
 10
608.6665103716926524
 20
-232.7504219006472681
 30
0.0
 40
43.0648186370725909
100
AcDbArc
 50
129.0378095429726955
 51
134.0851288803693251
  0
ARC
  5
181
100
AcDbEntity
  8
0
 62
1
420
16711680
370
-1
 48
1.0
  6
BYLAYER
100
AcDbCircle
 10
584.3989478854983872
 20
-207.3151107448680364
 30
0.0
 40
7.9152948923541366
100
AcDbArc
 50
135.9998060933421584
 51
148.2306650547996867
  0
LINE
  5
182
100
AcDbEntity
  8
0
 62
1
420
16711680
370
-1
 48
1.0
  6
BYLAYER
100
AcDbLine
 10
577.6695652066683806
 20
-203.1477012383771807
 30
0.0
 11
587.4775415729903898
 21
-203.1477012383771807
 31
0.0
  0
LINE
  5
183
100
AcDbEntity
  8
0
 62
1
420
16711680
370
-1
 48
1.0
  6
BYLAYER
100
AcDbLine
 10
598.6313246026966226
 20
-191.019028991536544
 30
0.0
 11
601.0866011495536441
 21
-191.019028991536544
 31
0.0
  0
LINE
  5
184
100
AcDbEntity
  8
0
 62
1
420
16711680
370
-1
 48
1.0
  6
BYLAYER
100
AcDbLine
 10
601.0866011495536441
 20
-191.019028991536544
 30
0.0
 11
601.0866011495536441
 21
-203.4759467660318819
 31
0.0
  0
LINE
  5
185
100
AcDbEntity
  8
0
 62
1
420
16711680
370
-1
 48
1.0
  6
BYLAYER
100
AcDbLine
 10
601.0866011495536441
 20
-203.4759467660318819
 30
0.0
 11
606.6799049407895836
 21
-203.4759467660318819
 31
0.0
  0
LINE
  5
186
100
AcDbEntity
  8
0
 62
1
420
16711680
370
-1
 48
1.0
  6
BYLAYER
100
AcDbLine
 10
606.6799049407895836
 20
-203.4759467660318819
 30
0.0
 11
606.6799049407895836
 21
-191.019028991536544
 31
0.0
  0
LINE
  5
187
100
AcDbEntity
  8
0
 62
1
420
16711680
370
-1
 48
1.0
  6
BYLAYER
100
AcDbLine
 10
606.6799049407895836
 20
-191.019028991536544
 30
0.0
 11
609.1351814876466051
 21
-191.019028991536544
 31
0.0
  0
LINE
  5
188
100
AcDbEntity
  8
0
 62
1
420
16711680
370
-1
 48
1.0
  6
BYLAYER
100
AcDbLine
 10
609.1351814876466051
 20
-191.019028991536544
 30
0.0
 11
609.1351814876466051
 21
-203.4759467660318819
 31
0.0
  0
LINE
  5
189
100
AcDbEntity
  8
0
 62
1
420
16711680
370
-1
 48
1.0
  6
BYLAYER
100
AcDbLine
 10
609.1351814876466051
 20
-203.4759467660318819
 30
0.0
 11
614.7448975552651973
 21
-203.4759467660318819
 31
0.0
  0
LINE
  5
18A
100
AcDbEntity
  8
0
 62
1
420
16711680
370
-1
 48
1.0
  6
BYLAYER
100
AcDbLine
 10
614.7448975552651973
 20
-203.4759467660318819
 30
0.0
 11
614.7448975552651973
 21
-191.019028991536544
 31
0.0
  0
LINE
  5
18B
100
AcDbEntity
  8
0
 62
1
420
16711680
370
-1
 48
1.0
  6
BYLAYER
100
AcDbLine
 10
614.7448975552651973
 20
-191.019028991536544
 30
0.0
 11
617.1870442810160284
 21
-191.019028991536544
 31
0.0
  0
LINE
  5
18C
100
AcDbEntity
  8
0
 62
1
420
16711680
370
-1
 48
1.0
  6
BYLAYER
100
AcDbLine
 10
617.1870442810160284
 20
-191.019028991536544
 30
0.0
 11
617.1870442810160284
 21
-205.5077865822143792
 31
0.0
  0
LINE
  5
18D
100
AcDbEntity
  8
0
 62
1
420
16711680
370
-1
 48
1.0
  6
BYLAYER
100
AcDbLine
 10
617.1870442810160284
 20
-205.5077865822143792
 30
0.0
 11
598.6313246026966226
 21
-205.5077865822143792
 31
0.0
  0
LINE
  5
18E
100
AcDbEntity
  8
0
 62
1
420
16711680
370
-1
 48
1.0
  6
BYLAYER
100
AcDbLine
 10
598.6313246026966226
 20
-205.5077865822143792
 30
0.0
 11
598.6313246026966226
 21
-191.019028991536544
 31
0.0
  0
LINE
  5
18F
100
AcDbEntity
  8
0
 62
1
420
16711680
370
-1
 48
1.0
  6
BYLAYER
100
AcDbLine
 10
619.6390383725965876
 20
-191.019028991536544
 30
0.0
 11
631.4132054495701141
 21
-191.019028991536544
 31
0.0
  0
LINE
  5
190
100
AcDbEntity
  8
0
 62
1
420
16711680
370
-1
 48
1.0
  6
BYLAYER
100
AcDbLine
 10
631.4132054495701141
 20
-191.019028991536544
 30
0.0
 11
631.4132054495701141
 21
-193.0508688077190698
 31
0.0
  0
LINE
  5
191
100
AcDbEntity
  8
0
 62
1
420
16711680
370
-1
 48
1.0
  6
BYLAYER
100
AcDbLine
 10
631.4132054495701141
 20
-193.0508688077190698
 30
0.0
 11
626.7455540463204215
 21
-193.0508688077190698
 31
0.0
  0
LINE
  5
192
100
AcDbEntity
  8
0
 62
1
420
16711680
370
-1
 48
1.0
  6
BYLAYER
100
AcDbLine
 10
626.7455540463204215
 20
-193.0508688077190698
 30
0.0
 11
626.7455540463204215
 21
-205.5077865822143792
 31
0.0
  0
LINE
  5
193
100
AcDbEntity
  8
0
 62
1
420
16711680
370
-1
 48
1.0
  6
BYLAYER
100
AcDbLine
 10
626.7455540463204215
 20
-205.5077865822143792
 30
0.0
 11
624.3034073205695904
 21
-205.5077865822143792
 31
0.0
  0
LINE
  5
194
100
AcDbEntity
  8
0
 62
1
420
16711680
370
-1
 48
1.0
  6
BYLAYER
100
AcDbLine
 10
624.3034073205695904
 20
-205.5077865822143792
 30
0.0
 11
624.3034073205695904
 21
-193.0508688077190698
 31
0.0
  0
LINE
  5
195
100
AcDbEntity
  8
0
 62
1
420
16711680
370
-1
 48
1.0
  6
BYLAYER
100
AcDbLine
 10
624.3034073205695904
 20
-193.0508688077190698
 30
0.0
 11
619.6390383725965876
 21
-193.0508688077190698
 31
0.0
  0
LINE
  5
196
100
AcDbEntity
  8
0
 62
1
420
16711680
370
-1
 48
1.0
  6
BYLAYER
100
AcDbLine
 10
619.6390383725965876
 20
-193.0508688077190698
 30
0.0
 11
619.6390383725965876
 21
-191.019028991536544
 31
0.0
  0
LINE
  5
197
100
AcDbEntity
  8
0
 62
1
420
16711680
370
-1
 48
1.0
  6
BYLAYER
100
AcDbLine
 10
159.3878220909240042
 20
-32.3994748071557552
 30
0.0
 11
159.3878220909240042
 21
-29.8358772361726565
 31
0.0
  0
LINE
  5
198
100
AcDbEntity
  8
0
 62
1
420
16711680
370
-1
 48
1.0
  6
BYLAYER
100
AcDbLine
 10
159.3878220909240042
 20
-29.8358772361726565
 30
0.0
 11
161.8693582799934347
 21
-29.8358772361726565
 31
0.0
  0
LINE
  5
199
100
AcDbEntity
  8
0
 62
1
420
16711680
370
-1
 48
1.0
  6
BYLAYER
100
AcDbLine
 10
161.8693582799934347
 20
-29.8358772361726565
 30
0.0
 11
161.8693582799934347
 21
-32.3994748071557552
 31
0.0
  0
SPLINE
  5
19A
100
AcDbEntity
  8
0
 62
1
420
16711680
370
-1
 48
1.0
  6
BYLAYER
100
AcDbSpline
 70
8
 71
3
 72
8
 73
4
 74
0
 40
0.0
 40
0.0
 40
0.0
 40
0.0
 40
1.0
 40
1.0
 40
1.0
 40
1.0
 10
161.8693582799934347
 20
-32.3994748071557552
 30
0.0
 10
164.4165435745937884
 20
-32.5373379287707181
 30
0.0
 10
166.4265003555993303
 20
-33.3043383117238392
 30
0.0
 10
167.8992286230100035
 20
-34.7004759560150973
 30
0.0
  0
ARC
  5
19B
100
AcDbEntity
  8
0
 62
1
420
16711680
370
-1
 48
1.0
  6
BYLAYER
100
AcDbCircle
 10
163.232252717666114
 20
-39.7524428208942524
 30
0.0
 40
6.8777200659010029
100
AcDbArc
 50
358.7442665196588223
 51
47.2684391624059401
  0
ARC
  5
19C
100
AcDbEntity
  8
0
 62
1
420
16711680
370
-1
 48
1.0
  6
BYLAYER
100
AcDbCircle
 10
163.090748945301641
 20
-40.0260827056566768
 30
0.0
 40
7.0186484462630538
100
AcDbArc
 50
314.002350510951544
 51
1.0034522507421144
  0
SPLINE
  5
19D
100
AcDbEntity
  8
0
 62
1
420
16711680
370
-1
 48
1.0
  6
BYLAYER
100
AcDbSpline
 70
8
 71
3
 72
8
 73
4
 74
0
 40
0.0
 40
0.0
 40
0.0
 40
0.0
 40
1.0
 40
1.0
 40
1.0
 40
1.0
 10
167.9665189561792147
 20
-45.0746758575414361
 30
0.0
 10
166.53865091088133
 20
-46.4937906887685344
 30
0.0
 10
164.5062640188194223
 20
-47.2755621204661054
 30
0.0
 10
161.8693582799934347
 20
-47.4199901526341705
 30
0.0
  0
LINE
  5
19E
100
AcDbEntity
  8
0
 62
1
420
16711680
370
-1
 48
1.0
  6
BYLAYER
100
AcDbLine
 10
161.8693582799934347
 20
-47.4199901526341705
 30
0.0
 11
161.8693582799934347
 21
-50.0
 31
0.0
  0
LINE
  5
19F
100
AcDbEntity
  8
0
 62
1
420
16711680
370
-1
 48
1.0
  6
BYLAYER
100
AcDbLine
 10
161.8693582799934347
 20
-50.0
 30
0.0
 11
159.3878220909240042
 21
-50.0
 31
0.0
  0
LINE
  5
1A0
100
AcDbEntity
  8
0
 62
1
420
16711680
370
-1
 48
1.0
  6
BYLAYER
100
AcDbLine
 10
159.3878220909240042
 20
-50.0
 30
0.0
 11
159.3878220909240042
 21
-47.4199901526341705
 31
0.0
  0
SPLINE
  5
1A1
100
AcDbEntity
  8
0
 62
1
420
16711680
370
-1
 48
1.0
  6
BYLAYER
100
AcDbSpline
 70
8
 71
3
 72
8
 73
4
 74
0
 40
0.0
 40
0.0
 40
0.0
 40
0.0
 40
1.0
 40
1.0
 40
1.0
 40
1.0
 10
159.3878220909240042
 20
-47.4199901526341705
 30
0.0
 10
157.0222659882925882
 20
-47.330269708408558
 30
0.0
 10
155.0527928223644665
 20
-46.6097707752065205
 30
0.0
 10
153.4794025931396675
 20
-45.2584933530280651
 30
0.0
  0
SPLINE
  5
1A2
100
AcDbEntity
  8
0
 62
1
420
16711680
370
-1
 48
1.0
  6
BYLAYER
100
AcDbSpline
 70
8
 71
3
 72
8
 73
4
 74
0
 40
0.0
 40
0.0
 40
0.0
 40
0.0
 40
1.0
 40
1.0
 40
1.0
 40
1.0
 10
153.4794025931396675
 20
-45.2584933530280651
 30
0.0
 10
151.9060123639148685
 20
-43.9072159308496097
 30
0.0
 10
151.119317249302469
 20
-42.1221073362875416
 30
0.0
 10
151.119317249302469
 20
-39.9031675693418677
 30
0.0
  0
SPLINE
  5
1A3
100
AcDbEntity
  8
0
 62
1
420
16711680
370
-1
 48
1.0
  6
BYLAYER
100
AcDbSpline
 70
8
 71
3
 72
8
 73
4
 74
0
 40
0.0
 40
0.0
 40
0.0
 40
0.0
 40
1.0
 40
1.0
 40
1.0
 40
1.0
 10
151.119317249302469
 20
-39.9031675693418677
 30
0.0
 10
151.119317249302469
 20
-37.6754745883254003
 30
0.0
 10
151.9038240603971701
 20
-35.8931013731604551
 30
0.0
 10
153.4728376825865723
 20
-34.5560479238470393
 30
0.0
  0
SPLINE
  5
1A4
100
AcDbEntity
  8
0
 62
1
420
16711680
370
-1
 48
1.0
  6
BYLAYER
100
AcDbSpline
 70
8
 71
3
 72
8
 73
4
 74
0
 40
0.0
 40
0.0
 40
0.0
 40
0.0
 40
1.0
 40
1.0
 40
1.0
 40
1.0
 10
153.4728376825865723
 20
-34.5560479238470393
 30
0.0
 10
155.0418513047759745
 20
-33.2189944745336163
 30
0.0
 10
157.0135127742217946
 20
-32.5001367689698526
 30
0.0
 10
159.3878220909240042
 20
-32.3994748071557552
 30
0.0
  0
LINE
  5
1A5
100
AcDbEntity
  8
0
 62
1
420
16711680
370
-1
 48
1.0
  6
BYLAYER
100
AcDbLine
 10
161.8693582799934347
 20
-34.6643689479730881
 30
0.0
 11
161.8693582799934347
 21
-45.1419661907106544
 31
0.0
  0
SPLINE
  5
1A6
100
AcDbEntity
  8
0
 62
1
420
16711680
370
-1
 48
1.0
  6
BYLAYER
100
AcDbSpline
 70
8
 71
3
 72
8
 73
4
 74
0
 40
0.0
 40
0.0
 40
0.0
 40
0.0
 40
1.0
 40
1.0
 40
1.0
 40
1.0
 10
161.8693582799934347
 20
-45.1419661907106544
 30
0.0
 10
163.5784233273155053
 20
-45.0609989605558283
 30
0.0
 10
164.9242299906997005
 20
-44.5658952896766749
 30
0.0
 10
165.9067782701460771
 20
-43.6566551780731942
 30
0.0
  0
SPLINE
  5
1A7
100
AcDbEntity
  8
0
 62
1
420
16711680
370
-1
 48
1.0
  6
BYLAYER
100
AcDbSpline
 70
8
 71
3
 72
8
 73
4
 74
0
 40
0.0
 40
0.0
 40
0.0
 40
0.0
 40
1.0
 40
1.0
 40
1.0
 40
1.0
 10
165.9067782701460771
 20
-43.6566551780731942
 30
0.0
 10
166.8893265495924254
 20
-42.7474150664697206
 30
0.0
 10
167.3806006893155995
 20
-41.4962525302259451
 30
0.0
 10
167.3806006893155995
 20
-39.9031675693418677
 30
0.0
  0
SPLINE
  5
1A8
100
AcDbEntity
  8
0
 62
1
420
16711680
370
-1
 48
1.0
  6
BYLAYER
100
AcDbSpline
 70
8
 71
3
 72
8
 73
4
 74
0
 40
0.0
 40
0.0
 40
0.0
 40
0.0
 40
1.0
 40
1.0
 40
1.0
 40
1.0
 10
167.3806006893155995
 20
-39.9031675693418677
 30
0.0
 10
167.3806006893155995
 20
-38.3385305541878694
 30
0.0
 10
166.8986268395426578
 20
-37.0994036872914279
 30
0.0
 10
165.9346791399967174
 20
-36.1857869686525504
 30
0.0
  0
SPLINE
  5
1A9
100
AcDbEntity
  8
0
 62
1
420
16711680
370
-1
 48
1.0
  6
BYLAYER
100
AcDbSpline
 70
8
 71
3
 72
8
 73
4
 74
0
 40
0.0
 40
0.0
 40
0.0
 40
0.0
 40
1.0
 40
1.0
 40
1.0
 40
1.0
 10
165.9346791399967174
 20
-36.1857869686525504
 30
0.0
 10
164.970731440450777
 20
-35.27217025001368
 30
0.0
 10
163.6156244871163494
 20
-34.7650309097871855
 30
0.0
 10
161.8693582799934347
 20
-34.6643689479730881
 30
0.0
  0
SPLINE
  5
1AA
100
AcDbEntity
  8
0
 62
1
420
16711680
370
-1
 48
1.0
  6
BYLAYER
100
AcDbSpline
 70
8
 71
3
 72
8
 73
4
 74
0
 40
0.0
 40
0.0
 40
0.0
 40
0.0
 40
1.0
 40
1.0
 40
1.0
 40
1.0
 10
159.3878220909240042
 20
-34.6807812243558189
 30
0.0
 10
157.7400295420974885
 20
-34.7529952404398514
 30
0.0
 10
156.4068056239400448
 20
-35.2393456972482113
 30
0.0
 10
155.3881503364516732
 20
-36.1398325947808985
 30
0.0
  0
SPLINE
  5
1AB
100
AcDbEntity
  8
0
 62
1
420
16711680
370
-1
 48
1.0
  6
BYLAYER
100
AcDbSpline
 70
8
 71
3
 72
8
 73
4
 74
0
 40
0.0
 40
0.0
 40
0.0
 40
0.0
 40
1.0
 40
1.0
 40
1.0
 40
1.0
 10
155.3881503364516732
 20
-36.1398325947808985
 30
0.0
 10
154.3694950489633015
 20
-37.0403194923135857
 30
0.0
 10
153.8601674052191015
 20
-38.2947644838339087
 30
0.0
 10
153.8601674052191015
 20
-39.9031675693418677
 30
0.0
  0
SPLINE
  5
1AC
100
AcDbEntity
  8
0
 62
1
420
16711680
370
-1
 48
1.0
  6
BYLAYER
100
AcDbSpline
 70
8
 71
3
 72
8
 73
4
 74
0
 40
0.0
 40
0.0
 40
0.0
 40
0.0
 40
1.0
 40
1.0
 40
1.0
 40
1.0
 10
153.8601674052191015
 20
-39.9031675693418677
 30
0.0
 10
153.8601674052191015
 20
-41.4962525302259451
 30
0.0
 10
154.3629301384102064
 20
-42.7474150664697206
 30
0.0
 10
155.3684556047923877
 20
-43.6566551780731942
 30
0.0
  0
SPLINE
  5
1AD
100
AcDbEntity
  8
0
 62
1
420
16711680
370
-1
 48
1.0
  6
BYLAYER
100
AcDbSpline
 70
8
 71
3
 72
8
 73
4
 74
0
 40
0.0
 40
0.0
 40
0.0
 40
0.0
 40
1.0
 40
1.0
 40
1.0
 40
1.0
 10
155.3684556047923877
 20
-43.6566551780731942
 30
0.0
 10
156.373981071174569
 20
-44.5658952896766749
 30
0.0
 10
157.7137698998851079
 20
-45.0566223535204315
 30
0.0
 10
159.3878220909240042
 20
-45.1288363696044641
 30
0.0
  0
LINE
  5
1AE
100
AcDbEntity
  8
0
 62
1
420
16711680
370
-1
 48
1.0
  6
BYLAYER
100
AcDbLine
 10
159.3878220909240042
 20
-45.1288363696044641
 30
0.0
 11
159.3878220909240042
 21
-34.6807812243558189
 31
0.0
  0
ARC
  5
1AF
100
AcDbEntity
  8
0
 62
1
420
16711680
370
-1
 48
1.0
  6
BYLAYER
100
AcDbCircle
 10
176.4636365668849862
 20
-41.398516446376
 30
0.0
 40
9.1282760698329994
100
AcDbArc
 50
292.1912016386511368
 51
311.697089737156432
  0
ARC
  5
1B0
100
AcDbEntity
  8
0
 62
1
420
16711680
370
-1
 48
1.0
  6
BYLAYER
100
AcDbCircle
 10
177.2604358910808173
 20
-42.7359473662639857
 30
0.0
 40
7.5925253024656838
100
AcDbArc
 50
269.5568064539385773
 51
290.4353953968939095
  0
SPLINE
  5
1B1
100
AcDbEntity
  8
0
 62
1
420
16711680
370
-1
 48
1.0
  6
BYLAYER
100
AcDbSpline
 70
8
 71
3
 72
8
 73
4
 74
0
 40
0.0
 40
0.0
 40
0.0
 40
0.0
 40
1.0
 40
1.0
 40
1.0
 40
1.0
 10
177.2017068767437991
 20
-50.328245527654687
 30
0.0
 10
175.610810219377413
 20
-50.328245527654687
 30
0.0
 10
174.3880956288637094
 20
-49.939274577383884
 30
0.0
 10
173.5335631052026883
 20
-49.161332676842278
 30
0.0
  0
ARC
  5
1B2
100
AcDbEntity
  8
0
 62
1
420
16711680
370
-1
 48
1.0
  6
BYLAYER
100
AcDbCircle
 10
176.1033295583895892
 20
-46.2902388282999979
 30
0.0
 40
3.853164869436815
100
AcDbArc
 50
178.3489746815353101
 51
228.1699341544708091
  0
ARC
  5
1B3
100
AcDbEntity
  8
0
 62
1
420
16711680
370
-1
 48
1.0
  6
BYLAYER
100
AcDbCircle
 10
176.214344896210207
 20
-46.1345978574382585
 30
0.0
 40
3.9628318339960336
100
AcDbArc
 50
151.3734180639669944
 51
180.6452033562767667
  0
ARC
  5
1B4
100
AcDbEntity
  8
0
 62
1
420
16711680
370
-1
 48
1.0
  6
BYLAYER
100
AcDbCircle
 10
176.264560615361404
 20
-46.1317848793552514
 30
0.0
 40
4.0056493681773384
100
AcDbArc
 50
124.3463717830781974
 51
151.7528623775951644
  0
ARC
  5
1B5
100
AcDbEntity
  8
0
 62
1
420
16711680
370
-1
 48
1.0
  6
BYLAYER
100
AcDbCircle
 10
177.3268697435245258
 20
-47.7789421335589282
 30
0.0
 40
5.965189064553388
100
AcDbArc
 50
105.1234272819044264
 51
123.8446947528959754
  0
ARC
  5
1B6
100
AcDbEntity
  8
0
 62
1
420
16711680
370
-1
 48
1.0
  6
BYLAYER
100
AcDbCircle
 10
179.7153374578097953
 20
-58.6268175168931904
 30
0.0
 40
17.0685682047955432
100
AcDbArc
 50
95.9250639468686899
 51
103.3626526803580106
  0
SPLINE
  5
1B7
100
AcDbEntity
  8
0
 62
1
420
16711680
370
-1
 48
1.0
  6
BYLAYER
100
AcDbSpline
 70
8
 71
3
 72
8
 73
4
 74
0
 40
0.0
 40
0.0
 40
0.0
 40
0.0
 40
1.0
 40
1.0
 40
1.0
 40
1.0
 10
177.9533891350730244
 20
-41.6494337764647966
 30
0.0
 10
179.9359921221073364
 20
-41.4130969965534206
 30
0.0
 10
181.3955905684118193
 20
-41.1318999945292418
 30
0.0
 10
182.3321844739865583
 20
-40.8058427703922533
 30
0.0
  0
ARC
  5
1B8
100
AcDbEntity
  8
0
 62
1
420
16711680
370
-1
 48
1.0
  6
BYLAYER
100
AcDbCircle
 10
148.5507959951684427
 20
-39.7946120841212689
 30
0.0
 40
33.7965204578471585
100
AcDbArc
 50
358.2853886021844119
 51
359.3763327420056726
  0
SPLINE
  5
1B9
100
AcDbEntity
  8
0
 62
1
420
16711680
370
-1
 48
1.0
  6
BYLAYER
100
AcDbSpline
 70
8
 71
3
 72
8
 73
4
 74
0
 40
0.0
 40
0.0
 40
0.0
 40
0.0
 40
1.0
 40
1.0
 40
1.0
 40
1.0
 10
182.3453142950927202
 20
-40.1624815361890697
 30
0.0
 10
182.3453142950927202
 20
-39.1624268286011272
 30
0.0
 10
182.113354122216748
 20
-38.457793095902403
 30
0.0
 10
181.6494337764648037
 20
-38.04858033809289
 30
0.0
  0
SPLINE
  5
1BA
100
AcDbEntity
  8
0
 62
1
420
16711680
370
-1
 48
1.0
  6
BYLAYER
100
AcDbSpline
 70
8
 71
3
 72
8
 73
4
 74
0
 40
0.0
 40
0.0
 40
0.0
 40
0.0
 40
1.0
 40
1.0
 40
1.0
 40
1.0
 10
181.6494337764648037
 20
-38.04858033809289
 30
0.0
 10
181.0213906668855088
 20
-37.494939548115326
 30
0.0
 10
180.089173368346195
 20
-37.218119153126537
 30
0.0
 10
178.8527818808468624
 20
-37.218119153126537
 30
0.0
  0
SPLINE
  5
1BB
100
AcDbEntity
  8
0
 62
1
420
16711680
370
-1
 48
1.0
  6
BYLAYER
100
AcDbSpline
 70
8
 71
3
 72
8
 73
4
 74
0
 40
0.0
 40
0.0
 40
0.0
 40
0.0
 40
1.0
 40
1.0
 40
1.0
 40
1.0
 10
178.8527818808468624
 20
-37.218119153126537
 30
0.0
 10
177.69735762350237
 20
-37.218119153126537
 30
0.0
 10
176.8444663274796085
 20
-37.4199901526341705
 30
0.0
 10
176.2941079927786063
 20
-37.8237321516494376
 30
0.0
  0
SPLINE
  5
1BC
100
AcDbEntity
  8
0
 62
1
420
16711680
370
-1
 48
1.0
  6
BYLAYER
100
AcDbSpline
 70
8
 71
3
 72
8
 73
4
 74
0
 40
0.0
 40
0.0
 40
0.0
 40
0.0
 40
1.0
 40
1.0
 40
1.0
 40
1.0
 10
176.2941079927786063
 20
-37.8237321516494376
 30
0.0
 10
175.7437496580775758
 20
-38.2274741506646976
 30
0.0
 10
175.3372722796651999
 20
-38.9435964768313312
 30
0.0
 10
175.0746758575414503
 20
-39.9720991301493527
 30
0.0
  0
LINE
  5
1BD
100
AcDbEntity
  8
0
 62
1
420
16711680
370
-1
 48
1.0
  6
BYLAYER
100
AcDbLine
 10
175.0746758575414503
 20
-39.9720991301493527
 30
0.0
 11
172.6719185951091333
 21
-39.6438536024946657
 31
0.0
  0
ARC
  5
1BE
100
AcDbEntity
  8
0
 62
1
420
16711680
370
-1
 48
1.0
  6
BYLAYER
100
AcDbCircle
 10
178.5378787510394432
 20
-40.7083246147082178
 30
0.0
 40
5.9617604016602979
100
AcDbArc
 50
143.4236719204286601
 51
169.714699980121452
  0
ARC
  5
1BF
100
AcDbEntity
  8
0
 62
1
420
16711680
370
-1
 48
1.0
  6
BYLAYER
100
AcDbCircle
 10
177.369583237100386
 20
-40.1901749506894319
 30
0.0
 40
4.7230940393128185
100
AcDbArc
 50
107.8745176427900958
 51
140.0241277121693884
  0
ARC
  5
1C0
100
AcDbEntity
  8
0
 62
1
420
16711680
370
-1
 48
1.0
  6
BYLAYER
100
AcDbCircle
 10
179.0297362000591477
 20
-44.8514504254155213
 30
0.0
 40
9.6700836724498966
100
AcDbArc
 50
88.9479422923669745
 51
108.7592707012251054
  0
SPLINE
  5
1C1
100
AcDbEntity
  8
0
 62
1
420
16711680
370
-1
 48
1.0
  6
BYLAYER
100
AcDbSpline
 70
8
 71
3
 72
8
 73
4
 74
0
 40
0.0
 40
0.0
 40
0.0
 40
0.0
 40
1.0
 40
1.0
 40
1.0
 40
1.0
 10
179.2072870507139442
 20
-35.1829968816674921
 30
0.0
 10
180.4458668417309468
 20
-35.1829968816674921
 30
0.0
 10
181.4513923081131281
 20
-35.3285190655943993
 30
0.0
 10
182.2238634498604881
 20
-35.6195634334482207
 30
0.0
  0
SPLINE
  5
1C2
100
AcDbEntity
  8
0
 62
1
420
16711680
370
-1
 48
1.0
  6
BYLAYER
100
AcDbSpline
 70
8
 71
3
 72
8
 73
4
 74
0
 40
0.0
 40
0.0
 40
0.0
 40
0.0
 40
1.0
 40
1.0
 40
1.0
 40
1.0
 10
182.2238634498604881
 20
-35.6195634334482207
 30
0.0
 10
182.9963345916078765
 20
-35.9106078013020422
 30
0.0
 10
183.5647464303298761
 20
-36.2766015646370192
 30
0.0
 10
183.9290989660265723
 20
-36.7175447234531447
 30
0.0
  0
ARC
  5
1C3
100
AcDbEntity
  8
0
 62
1
420
16711680
370
-1
 48
1.0
  6
BYLAYER
100
AcDbCircle
 10
180.9171881093015202
 20
-39.1023034646431782
 30
0.0
 40
3.8417029118010242
100
AcDbArc
 50
10.6859120588849752
 51
38.3713361684368905
  0
ARC
  5
1C4
100
AcDbEntity
  8
0
 62
1
420
16711680
370
-1
 48
1.0
  6
BYLAYER
100
AcDbCircle
 10
170.8477881904164235
 20
-40.2680442947274244
 30
0.0
 40
13.9712879989871848
100
AcDbArc
 50
358.4135208759884677
 51
7.7253643766784084
  0
LINE
  5
1C5
100
AcDbEntity
  8
0
 62
1
420
16711680
370
-1
 48
1.0
  6
BYLAYER
100
AcDbLine
 10
184.8137206630559604
 20
-40.6548498276711001
 30
0.0
 11
184.8137206630559604
 21
-43.9274577383883127
 31
0.0
  0
SPLINE
  5
1C6
100
AcDbEntity
  8
0
 62
1
420
16711680
370
-1
 48
1.0
  6
BYLAYER
100
AcDbSpline
 70
8
 71
3
 72
8
 73
4
 74
0
 40
0.0
 40
0.0
 40
0.0
 40
0.0
 40
1.0
 40
1.0
 40
1.0
 40
1.0
 10
184.8137206630559604
 20
-43.9274577383883127
 30
0.0
 10
184.8137206630559604
 20
-46.212046610864931
 30
0.0
 10
184.8662399474807216
 20
-47.6563269325455394
 30
0.0
 10
184.9712785163302158
 20
-48.2602987034301663
 30
0.0
  0
ARC
  5
1C7
100
AcDbEntity
  8
0
 62
1
420
16711680
370
-1
 48
1.0
  6
BYLAYER
100
AcDbCircle
 10
190.3972259586499547
 20
-47.3058516646741936
 30
0.0
 40
5.5092535607472497
100
AcDbArc
 50
189.9765061515079196
 51
209.276346244196219
  0
LINE
  5
1C8
100
AcDbEntity
  8
0
 62
1
420
16711680
370
-1
 48
1.0
  6
BYLAYER
100
AcDbLine
 10
185.5916625635975663
 20
-50.0
 30
0.0
 11
183.0280649926144747
 21
-50.0
 31
0.0
  0
ARC
  5
1C9
100
AcDbEntity
  8
0
 62
1
420
16711680
370
-1
 48
1.0
  6
BYLAYER
100
AcDbCircle
 10
187.7802769861071113
 20
-47.728937935211178
 30
0.0
 40
5.2669955129293742
100
AcDbArc
 50
185.2878835005887197
 51
205.5429387176496334
  0
SPLINE
  5
1CA
100
AcDbEntity
  8
0
 62
1
420
16711680
370
-1
 48
1.0
  6
BYLAYER
100
AcDbSpline
 70
8
 71
3
 72
8
 73
4
 74
0
 40
0.0
 40
0.0
 40
0.0
 40
0.0
 40
1.0
 40
1.0
 40
1.0
 40
1.0
 10
182.3321844739865583
 20
-42.7293615624487089
 30
0.0
 10
181.4415449422834854
 20
-43.0926199463865629
 30
0.0
 10
180.1044914929700838
 20
-43.4011707423819715
 30
0.0
 10
178.3210241260462681
 20
-43.6550139504349204
 30
0.0
  0
SPLINE
  5
1CB
100
AcDbEntity
  8
0
 62
1
420
16711680
370
-1
 48
1.0
  6
BYLAYER
100
AcDbSpline
 70
8
 71
3
 72
8
 73
4
 74
0
 40
0.0
 40
0.0
 40
0.0
 40
0.0
 40
1.0
 40
1.0
 40
1.0
 40
1.0
 10
178.3210241260462681
 20
-43.6550139504349204
 30
0.0
 10
177.3122162043875392
 20
-43.8016302861206839
 30
0.0
 10
176.5982821817385968
 20
-43.9657530499480274
 30
0.0
 10
176.1792220580994695
 20
-44.1473822419169579
 30
0.0
  0
ARC
  5
1CC
100
AcDbEntity
  8
0
 62
1
420
16711680
370
-1
 48
1.0
  6
BYLAYER
100
AcDbCircle
 10
176.9851963250688698
 20
-46.1124155538063789
 30
0.0
 40
2.1238998177531827
100
AcDbArc
 50
112.3013820343389852
 51
146.6571519618003379
  0
ARC
  5
1CD
100
AcDbEntity
  8
0
 62
1
420
16711680
370
-1
 48
1.0
  6
BYLAYER
100
AcDbCircle
 10
176.9716451166338516
 20
-46.0905239619234237
 30
0.0
 40
2.1005744904550347
100
AcDbArc
 50
146.9528214579286498
 51
180.5391647724345034
  0
ARC
  5
1CE
100
AcDbEntity
  8
0
 62
1
420
16711680
370
-1
 48
1.0
  6
BYLAYER
100
AcDbCircle
 10
176.9648406718493163
 20
-46.1492645248644635
 30
0.0
 40
2.0940397629309486
100
AcDbArc
 50
178.933555956161797
 51
229.8506039190993704
  0
SPLINE
  5
1CF
100
AcDbEntity
  8
0
 62
1
420
16711680
370
-1
 48
1.0
  6
BYLAYER
100
AcDbSpline
 70
8
 71
3
 72
8
 73
4
 74
0
 40
0.0
 40
0.0
 40
0.0
 40
0.0
 40
1.0
 40
1.0
 40
1.0
 40
1.0
 10
175.6146397505333994
 20
-47.7498769079271312
 30
0.0
 10
176.1102904972919703
 20
-48.1864434597078599
 30
0.0
 10
176.8351660375294045
 20
-48.4047267355982243
 30
0.0
 10
177.7892663712456738
 20
-48.4047267355982243
 30
0.0
  0
ARC
  5
1D0
100
AcDbEntity
  8
0
 62
1
420
16711680
370
-1
 48
1.0
  6
BYLAYER
100
AcDbCircle
 10
177.8811647900825506
 20
-43.3449640542853771
 30
0.0
 40
5.0605971693655754
100
AcDbArc
 50
268.9594743850123564
 51
298.7270066155751351
  0
ARC
  5
1D1
100
AcDbEntity
  8
0
 62
1
420
16711680
370
-1
 48
1.0
  6
BYLAYER
100
AcDbCircle
 10
178.4911699793851767
 20
-44.413206680914513
 30
0.0
 40
3.8307034288680226
100
AcDbArc
 50
298.4055978427214768
 51
334.1404621973938447
  0
SPLINE
  5
1D2
100
AcDbEntity
  8
0
 62
1
420
16711680
370
-1
 48
1.0
  6
BYLAYER
100
AcDbSpline
 70
8
 71
3
 72
8
 73
4
 74
0
 40
0.0
 40
0.0
 40
0.0
 40
0.0
 40
1.0
 40
1.0
 40
1.0
 40
1.0
 10
181.9382898408009055
 20
-46.0840308550795967
 30
0.0
 10
182.2008862629246551
 20
-45.5303900651020257
 30
0.0
 10
182.3321844739865583
 20
-44.7119645494830138
 30
0.0
 10
182.3321844739865583
 20
-43.628754308222554
 30
0.0
  0
LINE
  5
1D3
100
AcDbEntity
  8
0
 62
1
420
16711680
370
-1
 48
1.0
  6
BYLAYER
100
AcDbLine
 10
182.3321844739865583
 20
-43.628754308222554
 30
0.0
 11
182.3321844739865583
 21
-42.7293615624487089
 31
0.0
  0
LINE
  5
1D4
100
AcDbEntity
  8
0
 62
1
420
16711680
370
-1
 48
1.0
  6
BYLAYER
100
AcDbLine
 10
188.6312161496799717
 20
-35.5112424093221719
 30
0.0
 11
191.0864926965369932
 21
-35.5112424093221719
 31
0.0
  0
LINE
  5
1D5
100
AcDbEntity
  8
0
 62
1
420
16711680
370
-1
 48
1.0
  6
BYLAYER
100
AcDbLine
 10
191.0864926965369932
 20
-35.5112424093221719
 30
0.0
 11
191.0864926965369932
 21
-41.5411127523387478
 31
0.0
  0
LINE
  5
1D6
100
AcDbEntity
  8
0
 62
1
420
16711680
370
-1
 48
1.0
  6
BYLAYER
100
AcDbLine
 10
191.0864926965369932
 20
-41.5411127523387478
 30
0.0
 11
197.8943049400951963
 21
-41.5411127523387478
 31
0.0
  0
LINE
  5
1D7
100
AcDbEntity
  8
0
 62
1
420
16711680
370
-1
 48
1.0
  6
BYLAYER
100
AcDbLine
 10
197.8943049400951963
 20
-41.5411127523387478
 30
0.0
 11
197.8943049400951963
 21
-35.5112424093221719
 31
0.0
  0
LINE
  5
1D8
100
AcDbEntity
  8
0
 62
1
420
16711680
370
-1
 48
1.0
  6
BYLAYER
100
AcDbLine
 10
197.8943049400951963
 20
-35.5112424093221719
 30
0.0
 11
200.3495814869522462
 21
-35.5112424093221719
 31
0.0
  0
LINE
  5
1D9
100
AcDbEntity
  8
0
 62
1
420
16711680
370
-1
 48
1.0
  6
BYLAYER
100
AcDbLine
 10
200.3495814869522462
 20
-35.5112424093221719
 30
0.0
 11
200.3495814869522462
 21
-50.0
 31
0.0
  0
LINE
  5
1DA
100
AcDbEntity
  8
0
 62
1
420
16711680
370
-1
 48
1.0
  6
BYLAYER
100
AcDbLine
 10
200.3495814869522462
 20
-50.0
 30
0.0
 11
197.8943049400951963
 21
-50.0
 31
0.0
  0
LINE
  5
1DB
100
AcDbEntity
  8
0
 62
1
420
16711680
370
-1
 48
1.0
  6
BYLAYER
100
AcDbLine
 10
197.8943049400951963
 20
-50.0
 30
0.0
 11
197.8943049400951963
 21
-43.5729525685212522
 31
0.0
  0
LINE
  5
1DC
100
AcDbEntity
  8
0
 62
1
420
16711680
370
-1
 48
1.0
  6
BYLAYER
100
AcDbLine
 10
197.8943049400951963
 20
-43.5729525685212522
 30
0.0
 11
191.0864926965369932
 21
-43.5729525685212522
 31
0.0
  0
LINE
  5
1DD
100
AcDbEntity
  8
0
 62
1
420
16711680
370
-1
 48
1.0
  6
BYLAYER
100
AcDbLine
 10
191.0864926965369932
 20
-43.5729525685212522
 30
0.0
 11
191.0864926965369932
 21
-50.0
 31
0.0
  0
LINE
  5
1DE
100
AcDbEntity
  8
0
 62
1
420
16711680
370
-1
 48
1.0
  6
BYLAYER
100
AcDbLine
 10
191.0864926965369932
 20
-50.0
 30
0.0
 11
188.6312161496799717
 21
-50.0
 31
0.0
  0
LINE
  5
1DF
100
AcDbEntity
  8
0
 62
1
420
16711680
370
-1
 48
1.0
  6
BYLAYER
100
AcDbLine
 10
188.6312161496799717
 20
-50.0
 30
0.0
 11
188.6312161496799717
 21
-35.5112424093221719
 31
0.0
  0
LINE
  5
1E0
100
AcDbEntity
  8
0
 62
1
420
16711680
370
-1
 48
1.0
  6
BYLAYER
100
AcDbLine
 10
213.9652059740685957
 20
-45.3356310520269119
 30
0.0
 11
216.5025439028393066
 21
-45.6474643032988681
 31
0.0
  0
SPLINE
  5
1E1
100
AcDbEntity
  8
0
 62
1
420
16711680
370
-1
 48
1.0
  6
BYLAYER
100
AcDbSpline
 70
8
 71
3
 72
8
 73
4
 74
0
 40
0.0
 40
0.0
 40
0.0
 40
0.0
 40
1.0
 40
1.0
 40
1.0
 40
1.0
 10
216.5025439028393066
 20
-45.6474643032988681
 30
0.0
 10
216.1020843591006155
 20
-47.1311340882980474
 30
0.0
 10
215.3607965424804433
 20
-48.282181738607143
 30
0.0
 10
214.2786804529788469
 20
-49.100607254226162
 30
0.0
  0
SPLINE
  5
1E2
100
AcDbEntity
  8
0
 62
1
420
16711680
370
-1
 48
1.0
  6
BYLAYER
100
AcDbSpline
 70
8
 71
3
 72
8
 73
4
 74
0
 40
0.0
 40
0.0
 40
0.0
 40
0.0
 40
1.0
 40
1.0
 40
1.0
 40
1.0
 10
214.2786804529788469
 20
-49.100607254226162
 30
0.0
 10
213.1965643634771936
 20
-49.9190327698451739
 30
0.0
 10
211.8141036161715647
 20
-50.328245527654687
 30
0.0
 10
210.1312982110618748
 20
-50.328245527654687
 30
0.0
  0
SPLINE
  5
1E3
100
AcDbEntity
  8
0
 62
1
420
16711680
370
-1
 48
1.0
  6
BYLAYER
100
AcDbSpline
 70
8
 71
3
 72
8
 73
4
 74
0
 40
0.0
 40
0.0
 40
0.0
 40
0.0
 40
1.0
 40
1.0
 40
1.0
 40
1.0
 10
210.1312982110618748
 20
-50.328245527654687
 30
0.0
 10
208.0108321024125928
 20
-50.328245527654687
 30
0.0
 10
206.3302150008206013
 20
-49.6755840035012852
 30
0.0
 10
205.0894469062859002
 20
-48.3702609551944889
 30
0.0
  0
SPLINE
  5
1E4
100
AcDbEntity
  8
0
 62
1
420
16711680
370
-1
 48
1.0
  6
BYLAYER
100
AcDbSpline
 70
8
 71
3
 72
8
 73
4
 74
0
 40
0.0
 40
0.0
 40
0.0
 40
0.0
 40
1.0
 40
1.0
 40
1.0
 40
1.0
 10
205.0894469062859002
 20
-48.3702609551944889
 30
0.0
 10
203.8486788117511992
 20
-47.0649379068876854
 30
0.0
 10
203.2282947644838487
 20
-45.2338749384539653
 30
0.0
 10
203.2282947644838487
 20
-42.8770720498933215
 30
0.0
  0
SPLINE
  5
1E5
100
AcDbEntity
  8
0
 62
1
420
16711680
370
-1
 48
1.0
  6
BYLAYER
100
AcDbSpline
 70
8
 71
3
 72
8
 73
4
 74
0
 40
0.0
 40
0.0
 40
0.0
 40
0.0
 40
1.0
 40
1.0
 40
1.0
 40
1.0
 10
203.2282947644838487
 20
-42.8770720498933215
 30
0.0
 10
203.2282947644838487
 20
-40.44149023469555
 30
0.0
 10
203.8557907981837047
 20
-38.5502489195251385
 30
0.0
 10
205.1107828655834453
 20
-37.20334810438208
 30
0.0
  0
SPLINE
  5
1E6
100
AcDbEntity
  8
0
 62
1
420
16711680
370
-1
 48
1.0
  6
BYLAYER
100
AcDbSpline
 70
8
 71
3
 72
8
 73
4
 74
0
 40
0.0
 40
0.0
 40
0.0
 40
0.0
 40
1.0
 40
1.0
 40
1.0
 40
1.0
 10
205.1107828655834453
 20
-37.20334810438208
 30
0.0
 10
206.3657749329831859
 20
-35.8564472892390214
 30
0.0
 10
207.9933256742710341
 20
-35.1829968816674921
 30
0.0
 10
209.9934350894469048
 20
-35.1829968816674921
 30
0.0
  0
SPLINE
  5
1E7
100
AcDbEntity
  8
0
 62
1
420
16711680
370
-1
 48
1.0
  6
BYLAYER
100
AcDbSpline
 70
8
 71
3
 72
8
 73
4
 74
0
 40
0.0
 40
0.0
 40
0.0
 40
0.0
 40
1.0
 40
1.0
 40
1.0
 40
1.0
 10
209.9934350894469048
 20
-35.1829968816674921
 30
0.0
 10
211.9322720061272491
 20
-35.1829968816674921
 30
0.0
 10
213.5155096011816909
 20
-35.8427703922534064
 30
0.0
 10
214.7431478746102016
 20
-37.1623174134252423
 30
0.0
  0
SPLINE
  5
1E8
100
AcDbEntity
  8
0
 62
1
420
16711680
370
-1
 48
1.0
  6
BYLAYER
100
AcDbSpline
 70
8
 71
3
 72
8
 73
4
 74
0
 40
0.0
 40
0.0
 40
0.0
 40
0.0
 40
1.0
 40
1.0
 40
1.0
 40
1.0
 10
214.7431478746102016
 20
-37.1623174134252423
 30
0.0
 10
215.9707861480387407
 20
-38.4818644345970782
 30
0.0
 10
216.5846052847529961
 20
-40.3375458176049051
 30
0.0
 10
216.5846052847529961
 20
-42.7293615624487089
 30
0.0
  0
ARC
  5
1E9
100
AcDbEntity
  8
0
 62
1
420
16711680
370
-1
 48
1.0
  6
BYLAYER
100
AcDbCircle
 10
192.768865258944885
 20
-42.5773894782387217
 30
0.0
 40
23.8162249000814121
100
AcDbArc
 50
358.0625708741101789
 51
359.6343913379607784
  0
LINE
  5
1EA
100
AcDbEntity
  8
0
 62
1
420
16711680
370
-1
 48
1.0
  6
BYLAYER
100
AcDbLine
 10
216.5714754636468058
 20
-43.3825701624815352
 30
0.0
 11
205.7656326932545596
 21
-43.3825701624815352
 31
0.0
  0
SPLINE
  5
1EB
100
AcDbEntity
  8
0
 62
1
420
16711680
370
-1
 48
1.0
  6
BYLAYER
100
AcDbSpline
 70
8
 71
3
 72
8
 73
4
 74
0
 40
0.0
 40
0.0
 40
0.0
 40
0.0
 40
1.0
 40
1.0
 40
1.0
 40
1.0
 10
205.7656326932545596
 20
-43.3825701624815352
 30
0.0
 10
205.8553531374801651
 20
-44.9756551233656126
 30
0.0
 10
206.3050495103670983
 20
-46.1950872586027685
 30
0.0
 10
207.1147218119153024
 20
-47.0408665681930103
 30
0.0
  0
ARC
  5
1EC
100
AcDbEntity
  8
0
 62
1
420
16711680
370
-1
 48
1.0
  6
BYLAYER
100
AcDbCircle
 10
210.0476096061082956
 20
-44.2887948061592311
 30
0.0
 40
4.0219062391744247
100
AcDbArc
 50
223.1782624741209986
 51
271.3794014022382726
  0
ARC
  5
1ED
100
AcDbEntity
  8
0
 62
1
420
16711680
370
-1
 48
1.0
  6
BYLAYER
100
AcDbCircle
 10
210.249621963579159
 20
-44.559487323020825
 30
0.0
 40
3.7515233355546633
100
AcDbArc
 50
268.3931971466856794
 51
305.8868049295884362
  0
SPLINE
  5
1EE
100
AcDbEntity
  8
0
 62
1
420
16711680
370
-1
 48
1.0
  6
BYLAYER
100
AcDbSpline
 70
8
 71
3
 72
8
 73
4
 74
0
 40
0.0
 40
0.0
 40
0.0
 40
0.0
 40
1.0
 40
1.0
 40
1.0
 40
1.0
 10
212.4487116363039547
 20
-47.598883965205971
 30
0.0
 10
213.0855079599540431
 20
-47.1251162536243768
 30
0.0
 10
213.5910060725422568
 20
-46.3706986158980214
 30
0.0
 10
213.9652059740685957
 20
-45.3356310520269119
 30
0.0
  0
LINE
  5
1EF
100
AcDbEntity
  8
0
 62
1
420
16711680
370
-1
 48
1.0
  6
BYLAYER
100
AcDbLine
 10
205.9002133595929536
 20
-41.3638601674052211
 30
0.0
 11
213.9914656162809763
 21
-41.3638601674052211
 31
0.0
  0
SPLINE
  5
1F0
100
AcDbEntity
  8
0
 62
1
420
16711680
370
-1
 48
1.0
  6
BYLAYER
100
AcDbSpline
 70
8
 71
3
 72
8
 73
4
 74
0
 40
0.0
 40
0.0
 40
0.0
 40
0.0
 40
1.0
 40
1.0
 40
1.0
 40
1.0
 10
213.9914656162809763
 20
-41.3638601674052211
 30
0.0
 10
213.8820504403960854
 20
-40.1449751080474826
 30
0.0
 10
213.5724054926418205
 20
-39.2313583894086122
 30
0.0
 10
213.0625307730182101
 20
-38.6230100114885957
 30
0.0
  0
ARC
  5
1F1
100
AcDbEntity
  8
0
 62
1
420
16711680
370
-1
 48
1.0
  6
BYLAYER
100
AcDbCircle
 10
210.1195056731960165
 20
-40.9560719131212068
 30
0.0
 40
3.7556057534081986
100
AcDbArc
 50
38.4053676919932698
 51
91.4728074123075601
  0
ARC
  5
1F2
100
AcDbEntity
  8
0
 62
1
420
16711680
370
-1
 48
1.0
  6
BYLAYER
100
AcDbCircle
 10
209.9266147008196128
 20
-41.1016883444795695
 30
0.0
 40
3.9011717697908357
100
AcDbArc
 50
88.5845982488559258
 51
134.8129823301240151
  0
SPLINE
  5
1F3
100
AcDbEntity
  8
0
 62
1
420
16711680
370
-1
 48
1.0
  6
BYLAYER
100
AcDbSpline
 70
8
 71
3
 72
8
 73
4
 74
0
 40
0.0
 40
0.0
 40
0.0
 40
0.0
 40
1.0
 40
1.0
 40
1.0
 40
1.0
 10
207.1770884621697064
 20
-38.3341539471524726
 30
0.0
 10
206.4089939274577432
 20
-39.0891186607582455
 30
0.0
 10
205.9833688932654923
 20
-40.0990207341758236
 30
0.0
 10
205.9002133595929536
 20
-41.3638601674052211
 30
0.0
  0
LINE
  5
1F4
100
AcDbEntity
  8
0
 62
1
420
16711680
370
-1
 48
1.0
  6
BYLAYER
100
AcDbLine
 10
219.5814869522402546
 20
-55.5539143279172833
 30
0.0
 11
219.5814869522402546
 21
-35.5112424093221719
 31
0.0
  0
LINE
  5
1F5
100
AcDbEntity
  8
0
 62
1
420
16711680
370
-1
 48
1.0
  6
BYLAYER
100
AcDbLine
 10
219.5814869522402546
 20
-35.5112424093221719
 30
0.0
 11
221.8201214508452495
 21
-35.5112424093221719
 31
0.0
  0
LINE
  5
1F6
100
AcDbEntity
  8
0
 62
1
420
16711680
370
-1
 48
1.0
  6
BYLAYER
100
AcDbLine
 10
221.8201214508452495
 20
-35.5112424093221719
 30
0.0
 11
221.8201214508452495
 21
-37.3953717380600708
 31
0.0
  0
ARC
  5
1F7
100
AcDbEntity
  8
0
 62
1
420
16711680
370
-1
 48
1.0
  6
BYLAYER
100
AcDbCircle
 10
226.3724690453699964
 20
-40.5067038369752339
 30
0.0
 40
5.5140054453287748
100
AcDbArc
 50
120.0966102074994382
 51
145.6490875667984426
  0
ARC
  5
1F8
100
AcDbEntity
  8
0
 62
1
420
16711680
370
-1
 48
1.0
  6
BYLAYER
100
AcDbCircle
 10
225.8747408512957975
 20
-40.0872991510988399
 30
0.0
 40
4.9065025447625921
100
AcDbArc
 50
88.2840431537943431
 51
117.5230643348151034
  0
ARC
  5
1F9
100
AcDbEntity
  8
0
 62
1
420
16711680
370
-1
 48
1.0
  6
BYLAYER
100
AcDbCircle
 10
226.1277587693115265
 20
-40.9087124394553996
 30
0.0
 40
5.7266984122885667
100
AcDbArc
 50
56.4114338311933139
 51
91.0615398472913
  0
ARC
  5
1FA
100
AcDbEntity
  8
0
 62
1
420
16711680
370
-1
 48
1.0
  6
BYLAYER
100
AcDbCircle
 10
225.985996094227346
 20
-40.9673492820502787
 30
0.0
 40
5.8545980529865727
100
AcDbArc
 50
21.379559590969194
 51
55.5731604019130856
  0
ARC
  5
1FB
100
AcDbEntity
  8
0
 62
1
420
16711680
370
-1
 48
1.0
  6
BYLAYER
100
AcDbCircle
 10
222.307535805769362
 20
-42.5371600425473488
 30
0.0
 40
9.8529353811653948
100
AcDbArc
 50
359.3595110239101018
 51
22.0821737729626228
  0
ARC
  5
1FC
100
AcDbEntity
  8
0
 62
1
420
16711680
370
-1
 48
1.0
  6
BYLAYER
100
AcDbCircle
 10
222.472465877443625
 20
-42.7979180439523645
 30
0.0
 40
9.6885605140471664
100
AcDbArc
 50
336.5707102044200383
 51
0.8907531227605462
  0
ARC
  5
1FD
100
AcDbEntity
  8
0
 62
1
420
16711680
370
-1
 48
1.0
  6
BYLAYER
100
AcDbCircle
 10
225.8263201044911739
 20
-44.2964667758470085
 30
0.0
 40
6.0155209290870371
100
AcDbArc
 50
302.3274586931410681
 51
336.9654738367832465
  0
ARC
  5
1FE
100
AcDbEntity
  8
0
 62
1
420
16711680
370
-1
 48
1.0
  6
BYLAYER
100
AcDbCircle
 10
225.8190578044550421
 20
-44.3753856532171014
 30
0.0
 40
5.9529138663889851
100
AcDbArc
 50
270.2440268822142002
 51
302.792719739217091
  0
ARC
  5
1FF
100
AcDbEntity
  8
0
 62
1
420
16711680
370
-1
 48
1.0
  6
BYLAYER
100
AcDbCircle
 10
225.7695694180048918
 20
-45.7031523926485406
 30
0.0
 40
4.6256986350889875
100
AcDbArc
 50
242.5918938493968255
 51
270.9270663202295282
  0
ARC
  5
200
100
AcDbEntity
  8
0
 62
1
420
16711680
370
-1
 48
1.0
  6
BYLAYER
100
AcDbCircle
 10
225.9398935407661497
 20
-45.3577021490666894
 30
0.0
 40
5.010782792167678
100
AcDbArc
 50
218.8358116848834811
 51
242.6812456919228964
  0
LINE
  5
201
100
AcDbEntity
  8
0
 62
1
420
16711680
370
-1
 48
1.0
  6
BYLAYER
100
AcDbLine
 10
222.0367634990973329
 20
-48.4999179386180828
 30
0.0
 11
222.0367634990973329
 21
-55.5539143279172833
 31
0.0
  0
LINE
  5
202
100
AcDbEntity
  8
0
 62
1
420
16711680
370
-1
 48
1.0
  6
BYLAYER
100
AcDbLine
 10
222.0367634990973329
 20
-55.5539143279172833
 30
0.0
 11
219.5814869522402546
 21
-55.5539143279172833
 31
0.0
  0
SPLINE
  5
203
100
AcDbEntity
  8
0
 62
1
420
16711680
370
-1
 48
1.0
  6
BYLAYER
100
AcDbSpline
 70
8
 71
3
 72
8
 73
4
 74
0
 40
0.0
 40
0.0
 40
0.0
 40
0.0
 40
1.0
 40
1.0
 40
1.0
 40
1.0
 10
221.8069916297390591
 20
-42.8376825865747577
 30
0.0
 10
221.8069916297390591
 20
-44.7021171836533711
 30
0.0
 10
222.1844739865419456
 20
-46.0802013239236246
 30
0.0
 10
222.9394387001477185
 20
-46.9719350073855253
 30
0.0
  0
SPLINE
  5
204
100
AcDbEntity
  8
0
 62
1
420
16711680
370
-1
 48
1.0
  6
BYLAYER
100
AcDbSpline
 70
8
 71
3
 72
8
 73
4
 74
0
 40
0.0
 40
0.0
 40
0.0
 40
0.0
 40
1.0
 40
1.0
 40
1.0
 40
1.0
 10
222.9394387001477185
 20
-46.9719350073855253
 30
0.0
 10
223.6944034137534913
 20
-47.8636686908474189
 30
0.0
 10
224.6080201323923689
 20
-48.3095355325783657
 30
0.0
 10
225.680288856064351
 20
-48.3095355325783657
 30
0.0
  0
SPLINE
  5
205
100
AcDbEntity
  8
0
 62
1
420
16711680
370
-1
 48
1.0
  6
BYLAYER
100
AcDbSpline
 70
8
 71
3
 72
8
 73
4
 74
0
 40
0.0
 40
0.0
 40
0.0
 40
0.0
 40
1.0
 40
1.0
 40
1.0
 40
1.0
 10
225.680288856064351
 20
-48.3095355325783657
 30
0.0
 10
226.7722523113955901
 20
-48.3095355325783657
 30
0.0
 10
227.7066579134526023
 20
-47.8478034903441056
 30
0.0
 10
228.4835056622353591
 20
-46.9243394058755996
 30
0.0
  0
SPLINE
  5
206
100
AcDbEntity
  8
0
 62
1
420
16711680
370
-1
 48
1.0
  6
BYLAYER
100
AcDbSpline
 70
8
 71
3
 72
8
 73
4
 74
0
 40
0.0
 40
0.0
 40
0.0
 40
0.0
 40
1.0
 40
1.0
 40
1.0
 40
1.0
 10
228.4835056622353591
 20
-46.9243394058755996
 30
0.0
 10
229.2603534110181158
 20
-46.0008753214070794
 30
0.0
 10
229.6487772854094942
 20
-44.5708189725914963
 30
0.0
 10
229.6487772854094942
 20
-42.6341703594288504
 30
0.0
  0
SPLINE
  5
207
100
AcDbEntity
  8
0
 62
1
420
16711680
370
-1
 48
1.0
  6
BYLAYER
100
AcDbSpline
 70
8
 71
3
 72
8
 73
4
 74
0
 40
0.0
 40
0.0
 40
0.0
 40
0.0
 40
1.0
 40
1.0
 40
1.0
 40
1.0
 10
229.6487772854094942
 20
-42.6341703594288504
 30
0.0
 10
229.6487772854094942
 20
-40.7872421904918241
 30
0.0
 10
229.2691066250889094
 20
-39.4042343673067421
 30
0.0
 10
228.5097653044477397
 20
-38.4851468898736258
 30
0.0
  0
SPLINE
  5
208
100
AcDbEntity
  8
0
 62
1
420
16711680
370
-1
 48
1.0
  6
BYLAYER
100
AcDbSpline
 70
8
 71
3
 72
8
 73
4
 74
0
 40
0.0
 40
0.0
 40
0.0
 40
0.0
 40
1.0
 40
1.0
 40
1.0
 40
1.0
 10
228.5097653044477397
 20
-38.4851468898736258
 30
0.0
 10
227.75042398380657
 20
-37.5660594124405094
 30
0.0
 10
226.8433721757207593
 20
-37.1065156737239477
 30
0.0
 10
225.7886098801903927
 20
-37.1065156737239477
 30
0.0
  0
SPLINE
  5
209
100
AcDbEntity
  8
0
 62
1
420
16711680
370
-1
 48
1.0
  6
BYLAYER
100
AcDbSpline
 70
8
 71
3
 72
8
 73
4
 74
0
 40
0.0
 40
0.0
 40
0.0
 40
0.0
 40
1.0
 40
1.0
 40
1.0
 40
1.0
 10
225.7886098801903927
 20
-37.1065156737239477
 30
0.0
 10
224.7426007987307912
 20
-37.1065156737239477
 30
0.0
 10
223.8174954866240114
 20
-37.5956015099294305
 30
0.0
 10
223.0132939438699964
 20
-38.5737731823403891
 30
0.0
  0
SPLINE
  5
20A
100
AcDbEntity
  8
0
 62
1
420
16711680
370
-1
 48
1.0
  6
BYLAYER
100
AcDbSpline
 70
8
 71
3
 72
8
 73
4
 74
0
 40
0.0
 40
0.0
 40
0.0
 40
0.0
 40
1.0
 40
1.0
 40
1.0
 40
1.0
 10
223.0132939438699964
 20
-38.5737731823403891
 30
0.0
 10
222.2090924011160382
 20
-39.5519448547513548
 30
0.0
 10
221.8069916297390591
 20
-40.9732479894961443
 30
0.0
 10
221.8069916297390591
 20
-42.8376825865747577
 30
0.0
  0
ARC
  5
20B
100
AcDbEntity
  8
0
 62
1
420
16711680
370
-1
 48
1.0
  6
BYLAYER
100
AcDbCircle
 10
238.4987588383440027
 20
-41.3985164463759148
 30
0.0
 40
9.12827606983309
100
AcDbArc
 50
292.19120163865108
 51
311.6970897371562046
  0
ARC
  5
20C
100
AcDbEntity
  8
0
 62
1
420
16711680
370
-1
 48
1.0
  6
BYLAYER
100
AcDbCircle
 10
239.2955581625396917
 20
-42.7359473662631402
 30
0.0
 40
7.5925253024665276
100
AcDbArc
 50
269.5568064539399415
 51
290.4353953968928295
  0
SPLINE
  5
20D
100
AcDbEntity
  8
0
 62
1
420
16711680
370
-1
 48
1.0
  6
BYLAYER
100
AcDbSpline
 70
8
 71
3
 72
8
 73
4
 74
0
 40
0.0
 40
0.0
 40
0.0
 40
0.0
 40
1.0
 40
1.0
 40
1.0
 40
1.0
 10
239.236829148202844
 20
-50.328245527654687
 30
0.0
 10
237.6459324908364579
 20
-50.328245527654687
 30
0.0
 10
236.4232179003227543
 20
-49.939274577383884
 30
0.0
 10
235.5686853766617332
 20
-49.161332676842278
 30
0.0
  0
ARC
  5
20E
100
AcDbEntity
  8
0
 62
1
420
16711680
370
-1
 48
1.0
  6
BYLAYER
100
AcDbCircle
 10
238.1384518298488615
 20
-46.2902388282999695
 30
0.0
 40
3.8531648694370131
100
AcDbArc
 50
178.3489746815357364
 51
228.1699341544685637
  0
ARC
  5
20F
100
AcDbEntity
  8
0
 62
1
420
16711680
370
-1
 48
1.0
  6
BYLAYER
100
AcDbCircle
 10
238.249467167668314
 20
-46.1345978574380311
 30
0.0
 40
3.9628318339950765
100
AcDbArc
 50
151.3734180639631859
 51
180.6452033562795521
  0
ARC
  5
210
100
AcDbEntity
  8
0
 62
1
420
16711680
370
-1
 48
1.0
  6
BYLAYER
100
AcDbCircle
 10
238.2996828868199941
 20
-46.1317848793547682
 30
0.0
 40
4.0056493681766829
100
AcDbArc
 50
124.3463717830767337
 51
151.7528623775979781
  0
ARC
  5
211
100
AcDbEntity
  8
0
 62
1
420
16711680
370
-1
 48
1.0
  6
BYLAYER
100
AcDbCircle
 10
239.361992014983997
 20
-47.7789421335597808
 30
0.0
 40
5.9651890645543153
100
AcDbArc
 50
105.1234272819059896
 51
123.8446947528948101
  0
ARC
  5
212
100
AcDbEntity
  8
0
 62
1
420
16711680
370
-1
 48
1.0
  6
BYLAYER
100
AcDbCircle
 10
241.7504597292687833
 20
-58.6268175168927499
 30
0.0
 40
17.0685682047950955
100
AcDbArc
 50
95.9250639468685478
 51
103.3626526803580674
  0
SPLINE
  5
213
100
AcDbEntity
  8
0
 62
1
420
16711680
370
-1
 48
1.0
  6
BYLAYER
100
AcDbSpline
 70
8
 71
3
 72
8
 73
4
 74
0
 40
0.0
 40
0.0
 40
0.0
 40
0.0
 40
1.0
 40
1.0
 40
1.0
 40
1.0
 10
239.9885114065320977
 20
-41.6494337764647966
 30
0.0
 10
241.9711143935663813
 20
-41.4130969965534206
 30
0.0
 10
243.4307128398708642
 20
-41.1318999945292418
 30
0.0
 10
244.3673067454456032
 20
-40.8058427703922533
 30
0.0
  0
ARC
  5
214
100
AcDbEntity
  8
0
 62
1
420
16711680
370
-1
 48
1.0
  6
BYLAYER
100
AcDbCircle
 10
210.5859182666278002
 20
-39.794612084121276
 30
0.0
 40
33.7965204578468459
100
AcDbArc
 50
358.2853886021844119
 51
359.3763327420056726
  0
SPLINE
  5
215
100
AcDbEntity
  8
0
 62
1
420
16711680
370
-1
 48
1.0
  6
BYLAYER
100
AcDbSpline
 70
8
 71
3
 72
8
 73
4
 74
0
 40
0.0
 40
0.0
 40
0.0
 40
0.0
 40
1.0
 40
1.0
 40
1.0
 40
1.0
 10
244.3804365665517651
 20
-40.1624815361890697
 30
0.0
 10
244.3804365665517651
 20
-39.1624268286011272
 30
0.0
 10
244.1484763936757929
 20
-38.457793095902403
 30
0.0
 10
243.6845560479238486
 20
-38.04858033809289
 30
0.0
  0
SPLINE
  5
216
100
AcDbEntity
  8
0
 62
1
420
16711680
370
-1
 48
1.0
  6
BYLAYER
100
AcDbSpline
 70
8
 71
3
 72
8
 73
4
 74
0
 40
0.0
 40
0.0
 40
0.0
 40
0.0
 40
1.0
 40
1.0
 40
1.0
 40
1.0
 10
243.6845560479238486
 20
-38.04858033809289
 30
0.0
 10
243.0565129383445537
 20
-37.494939548115326
 30
0.0
 10
242.1242956398052399
 20
-37.218119153126537
 30
0.0
 10
240.8879041523059072
 20
-37.218119153126537
 30
0.0
  0
SPLINE
  5
217
100
AcDbEntity
  8
0
 62
1
420
16711680
370
-1
 48
1.0
  6
BYLAYER
100
AcDbSpline
 70
8
 71
3
 72
8
 73
4
 74
0
 40
0.0
 40
0.0
 40
0.0
 40
0.0
 40
1.0
 40
1.0
 40
1.0
 40
1.0
 10
240.8879041523059072
 20
-37.218119153126537
 30
0.0
 10
239.7324798949614433
 20
-37.218119153126537
 30
0.0
 10
238.8795885989386818
 20
-37.4199901526341705
 30
0.0
 10
238.3292302642376512
 20
-37.8237321516494376
 30
0.0
  0
SPLINE
  5
218
100
AcDbEntity
  8
0
 62
1
420
16711680
370
-1
 48
1.0
  6
BYLAYER
100
AcDbSpline
 70
8
 71
3
 72
8
 73
4
 74
0
 40
0.0
 40
0.0
 40
0.0
 40
0.0
 40
1.0
 40
1.0
 40
1.0
 40
1.0
 10
238.3292302642376512
 20
-37.8237321516494376
 30
0.0
 10
237.7788719295366207
 20
-38.2274741506646976
 30
0.0
 10
237.3723945511242164
 20
-38.9435964768313312
 30
0.0
 10
237.1097981290004952
 20
-39.9720991301493527
 30
0.0
  0
LINE
  5
219
100
AcDbEntity
  8
0
 62
1
420
16711680
370
-1
 48
1.0
  6
BYLAYER
100
AcDbLine
 10
237.1097981290004952
 20
-39.9720991301493527
 30
0.0
 11
234.7070408665681782
 21
-39.6438536024946657
 31
0.0
  0
ARC
  5
21A
100
AcDbEntity
  8
0
 62
1
420
16711680
370
-1
 48
1.0
  6
BYLAYER
100
AcDbCircle
 10
240.5730010224984312
 20
-40.7083246147082178
 30
0.0
 40
5.9617604016602517
100
AcDbArc
 50
143.4236719204283474
 51
169.7146999801213383
  0
ARC
  5
21B
100
AcDbEntity
  8
0
 62
1
420
16711680
370
-1
 48
1.0
  6
BYLAYER
100
AcDbCircle
 10
239.4047055085594309
 20
-40.1901749506893822
 30
0.0
 40
4.7230940393127714
100
AcDbArc
 50
107.8745176427902805
 51
140.0241277121698715
  0
ARC
  5
21C
100
AcDbEntity
  8
0
 62
1
420
16711680
370
-1
 48
1.0
  6
BYLAYER
100
AcDbCircle
 10
241.0648584715181642
 20
-44.8514504254155213
 30
0.0
 40
9.6700836724498966
100
AcDbArc
 50
88.9479422923668039
 51
108.7592707012249491
  0
SPLINE
  5
21D
100
AcDbEntity
  8
0
 62
1
420
16711680
370
-1
 48
1.0
  6
BYLAYER
100
AcDbSpline
 70
8
 71
3
 72
8
 73
4
 74
0
 40
0.0
 40
0.0
 40
0.0
 40
0.0
 40
1.0
 40
1.0
 40
1.0
 40
1.0
 10
241.2424093221729891
 20
-35.1829968816674921
 30
0.0
 10
242.4809891131899917
 20
-35.1829968816674921
 30
0.0
 10
243.4865145795722015
 20
-35.3285190655943993
 30
0.0
 10
244.2589857213195614
 20
-35.6195634334482207
 30
0.0
  0
SPLINE
  5
21E
100
AcDbEntity
  8
0
 62
1
420
16711680
370
-1
 48
1.0
  6
BYLAYER
100
AcDbSpline
 70
8
 71
3
 72
8
 73
4
 74
0
 40
0.0
 40
0.0
 40
0.0
 40
0.0
 40
1.0
 40
1.0
 40
1.0
 40
1.0
 10
244.2589857213195614
 20
-35.6195634334482207
 30
0.0
 10
245.031456863066893
 20
-35.9106078013020422
 30
0.0
 10
245.599868701788921
 20
-36.2766015646370192
 30
0.0
 10
245.9642212374856456
 20
-36.7175447234531447
 30
0.0
  0
ARC
  5
21F
100
AcDbEntity
  8
0
 62
1
420
16711680
370
-1
 48
1.0
  6
BYLAYER
100
AcDbCircle
 10
242.9523103807602524
 20
-39.1023034646433345
 30
0.0
 40
3.8417029118013604
100
AcDbArc
 50
10.6859120588864158
 51
38.3713361684355689
  0
ARC
  5
220
100
AcDbEntity
  8
0
 62
1
420
16711680
370
-1
 48
1.0
  6
BYLAYER
100
AcDbCircle
 10
232.8829104618754968
 20
-40.2680442947274244
 30
0.0
 40
13.9712879989871563
100
AcDbArc
 50
358.4135208759884677
 51
7.7253643766785034
  0
LINE
  5
221
100
AcDbEntity
  8
0
 62
1
420
16711680
370
-1
 48
1.0
  6
BYLAYER
100
AcDbLine
 10
246.8488429345150053
 20
-40.6548498276711001
 30
0.0
 11
246.8488429345150053
 21
-43.9274577383883127
 31
0.0
  0
SPLINE
  5
222
100
AcDbEntity
  8
0
 62
1
420
16711680
370
-1
 48
1.0
  6
BYLAYER
100
AcDbSpline
 70
8
 71
3
 72
8
 73
4
 74
0
 40
0.0
 40
0.0
 40
0.0
 40
0.0
 40
1.0
 40
1.0
 40
1.0
 40
1.0
 10
246.8488429345150053
 20
-43.9274577383883127
 30
0.0
 10
246.8488429345150053
 20
-46.212046610864931
 30
0.0
 10
246.9013622189397665
 20
-47.6563269325455394
 30
0.0
 10
247.0064007877892607
 20
-48.2602987034301663
 30
0.0
  0
ARC
  5
223
100
AcDbEntity
  8
0
 62
1
420
16711680
370
-1
 48
1.0
  6
BYLAYER
100
AcDbCircle
 10
252.4323482301089996
 20
-47.3058516646742149
 30
0.0
 40
5.509253560747239
100
AcDbArc
 50
189.9765061515077207
 51
209.2763462441960201
  0
LINE
  5
224
100
AcDbEntity
  8
0
 62
1
420
16711680
370
-1
 48
1.0
  6
BYLAYER
100
AcDbLine
 10
247.6267848350566112
 20
-50.0
 30
0.0
 11
245.0631872640735196
 21
-50.0
 31
0.0
  0
ARC
  5
225
100
AcDbEntity
  8
0
 62
1
420
16711680
370
-1
 48
1.0
  6
BYLAYER
100
AcDbCircle
 10
249.8153992575661562
 20
-47.7289379352111993
 30
0.0
 40
5.2669955129293724
100
AcDbArc
 50
185.2878835005884639
 51
205.5429387176494629
  0
SPLINE
  5
226
100
AcDbEntity
  8
0
 62
1
420
16711680
370
-1
 48
1.0
  6
BYLAYER
100
AcDbSpline
 70
8
 71
3
 72
8
 73
4
 74
0
 40
0.0
 40
0.0
 40
0.0
 40
0.0
 40
1.0
 40
1.0
 40
1.0
 40
1.0
 10
244.3673067454456032
 20
-42.7293615624487089
 30
0.0
 10
243.4766672137425303
 20
-43.0926199463865629
 30
0.0
 10
242.1396137644291002
 20
-43.4011707423819715
 30
0.0
 10
240.356146397505313
 20
-43.6550139504349204
 30
0.0
  0
SPLINE
  5
227
100
AcDbEntity
  8
0
 62
1
420
16711680
370
-1
 48
1.0
  6
BYLAYER
100
AcDbSpline
 70
8
 71
3
 72
8
 73
4
 74
0
 40
0.0
 40
0.0
 40
0.0
 40
0.0
 40
1.0
 40
1.0
 40
1.0
 40
1.0
 10
240.356146397505313
 20
-43.6550139504349204
 30
0.0
 10
239.3473384758465841
 20
-43.8016302861206839
 30
0.0
 10
238.6334044531976701
 20
-43.9657530499480274
 30
0.0
 10
238.2143443295585143
 20
-44.1473822419169579
 30
0.0
  0
ARC
  5
228
100
AcDbEntity
  8
0
 62
1
420
16711680
370
-1
 48
1.0
  6
BYLAYER
100
AcDbCircle
 10
239.0203185965278578
 20
-46.1124155538063292
 30
0.0
 40
2.1238998177531077
100
AcDbArc
 50
112.3013820343380615
 51
146.6571519618006221
  0
ARC
  5
229
100
AcDbEntity
  8
0
 62
1
420
16711680
370
-1
 48
1.0
  6
BYLAYER
100
AcDbCircle
 10
239.006767388092868
 20
-46.0905239619234237
 30
0.0
 40
2.1005744904550063
100
AcDbArc
 50
146.9528214579282235
 51
180.5391647724345034
  0
ARC
  5
22A
100
AcDbEntity
  8
0
 62
1
420
16711680
370
-1
 48
1.0
  6
BYLAYER
100
AcDbCircle
 10
238.9999629433083896
 20
-46.1492645248644635
 30
0.0
 40
2.0940397629309668
100
AcDbArc
 50
178.933555956161797
 51
229.8506039190987735
  0
SPLINE
  5
22B
100
AcDbEntity
  8
0
 62
1
420
16711680
370
-1
 48
1.0
  6
BYLAYER
100
AcDbSpline
 70
8
 71
3
 72
8
 73
4
 74
0
 40
0.0
 40
0.0
 40
0.0
 40
0.0
 40
1.0
 40
1.0
 40
1.0
 40
1.0
 10
237.6497620219924443
 20
-47.7498769079271312
 30
0.0
 10
238.1454127687510436
 20
-48.1864434597078599
 30
0.0
 10
238.8702883089884494
 20
-48.4047267355982243
 30
0.0
 10
239.8243886427047471
 20
-48.4047267355982243
 30
0.0
  0
ARC
  5
22C
100
AcDbEntity
  8
0
 62
1
420
16711680
370
-1
 48
1.0
  6
BYLAYER
100
AcDbCircle
 10
239.916287061541567
 20
-43.3449640542852634
 30
0.0
 40
5.060597169365689
100
AcDbArc
 50
268.9594743850130953
 51
298.7270066155747372
  0
ARC
  5
22D
100
AcDbEntity
  8
0
 62
1
420
16711680
370
-1
 48
1.0
  6
BYLAYER
100
AcDbCircle
 10
240.5262922508440511
 20
-44.4132066809142856
 30
0.0
 40
3.8307034288683011
100
AcDbArc
 50
298.4055978427221021
 51
334.1404621973921394
  0
SPLINE
  5
22E
100
AcDbEntity
  8
0
 62
1
420
16711680
370
-1
 48
1.0
  6
BYLAYER
100
AcDbSpline
 70
8
 71
3
 72
8
 73
4
 74
0
 40
0.0
 40
0.0
 40
0.0
 40
0.0
 40
1.0
 40
1.0
 40
1.0
 40
1.0
 10
243.9734121122599788
 20
-46.0840308550795967
 30
0.0
 10
244.2360085343837
 20
-45.5303900651020257
 30
0.0
 10
244.3673067454456032
 20
-44.7119645494830138
 30
0.0
 10
244.3673067454456032
 20
-43.628754308222554
 30
0.0
  0
LINE
  5
22F
100
AcDbEntity
  8
0
 62
1
420
16711680
370
-1
 48
1.0
  6
BYLAYER
100
AcDbLine
 10
244.3673067454456032
 20
-43.628754308222554
 30
0.0
 11
244.3673067454456032
 21
-42.7293615624487089
 31
0.0
  0
LINE
  5
230
100
AcDbEntity
  8
0
 62
1
420
16711680
370
-1
 48
1.0
  6
BYLAYER
100
AcDbLine
 10
266.9801411455769085
 20
-50.0
 30
0.0
 11
264.5248645987198302
 21
-50.0
 31
0.0
  0
LINE
  5
231
100
AcDbEntity
  8
0
 62
1
420
16711680
370
-1
 48
1.0
  6
BYLAYER
100
AcDbLine
 10
264.5248645987198302
 20
-50.0
 30
0.0
 11
264.5248645987198302
 21
-34.3525356967011319
 31
0.0
  0
ARC
  5
232
100
AcDbEntity
  8
0
 62
1
420
16711680
370
-1
 48
1.0
  6
BYLAYER
100
AcDbCircle
 10
255.8975772143311076
 20
-24.9286759275127778
 30
0.0
 40
12.7765105002171548
100
AcDbArc
 50
299.5526358146747157
 51
312.4732550634933546
  0
ARC
  5
233
100
AcDbEntity
  8
0
 62
1
420
16711680
370
-1
 48
1.0
  6
BYLAYER
100
AcDbCircle
 10
253.6610671632083722
 20
-21.9339756820632026
 30
0.0
 40
16.4913629882614643
100
AcDbArc
 50
291.1611091569665177
 51
301.1805316101406333
  0
LINE
  5
234
100
AcDbEntity
  8
0
 62
1
420
16711680
370
-1
 48
1.0
  6
BYLAYER
100
AcDbLine
 10
259.6143115050057304
 20
-37.3133103561464026
 30
0.0
 11
259.6143115050057304
 21
-34.9368127359264733
 31
0.0
  0
ARC
  5
235
100
AcDbEntity
  8
0
 62
1
420
16711680
370
-1
 48
1.0
  6
BYLAYER
100
AcDbCircle
 10
253.3823955686875991
 20
-21.4317834496983082
 30
0.0
 40
14.8735534509819072
100
AcDbArc
 50
294.7710325859636669
 51
311.3831166747712018
  0
SPLINE
  5
236
100
AcDbEntity
  8
0
 62
1
420
16711680
370
-1
 48
1.0
  6
BYLAYER
100
AcDbSpline
 70
8
 71
3
 72
8
 73
4
 74
0
 40
0.0
 40
0.0
 40
0.0
 40
0.0
 40
1.0
 40
1.0
 40
1.0
 40
1.0
 10
263.2151649433776583
 20
-32.591498440833746
 30
0.0
 10
264.2436675966956727
 20
-31.6735051151594718
 30
0.0
 10
264.9712785163302442
 20
-30.7823185075769992
 30
0.0
 10
265.3979977022813159
 20
-29.9179386180863283
 30
0.0
  0
LINE
  5
237
100
AcDbEntity
  8
0
 62
1
420
16711680
370
-1
 48
1.0
  6
BYLAYER
100
AcDbLine
 10
265.3979977022813159
 20
-29.9179386180863283
 30
0.0
 11
266.9801411455769085
 21
-29.9179386180863283
 31
0.0
  0
LINE
  5
238
100
AcDbEntity
  8
0
 62
1
420
16711680
370
-1
 48
1.0
  6
BYLAYER
100
AcDbLine
 10
266.9801411455769085
 20
-29.9179386180863283
 30
0.0
 11
266.9801411455769085
 21
-50.0
 31
0.0
  0
SPLINE
  5
239
100
AcDbEntity
  8
0
 62
1
420
16711680
370
-1
 48
1.0
  6
BYLAYER
100
AcDbSpline
 70
8
 71
3
 72
8
 73
4
 74
0
 40
0.0
 40
0.0
 40
0.0
 40
0.0
 40
1.0
 40
1.0
 40
1.0
 40
1.0
 10
273.2660430001641316
 20
-40.1362218939766962
 30
0.0
 10
273.2660430001641316
 20
-37.7706657913452659
 30
0.0
 10
273.5094917665080061
 20
-35.8673888068275062
 30
0.0
 10
273.9963892991958119
 20
-34.4263909404234383
 30
0.0
  0
SPLINE
  5
23A
100
AcDbEntity
  8
0
 62
1
420
16711680
370
-1
 48
1.0
  6
BYLAYER
100
AcDbSpline
 70
8
 71
3
 72
8
 73
4
 74
0
 40
0.0
 40
0.0
 40
0.0
 40
0.0
 40
1.0
 40
1.0
 40
1.0
 40
1.0
 10
273.9963892991958119
 20
-34.4263909404234383
 30
0.0
 10
274.4832868318835608
 20
-32.9853930740193704
 30
0.0
 10
275.2065211444827355
 20
-31.8737348870288315
 30
0.0
 10
276.1660922369932791
 20
-31.0914163794518288
 30
0.0
  0
SPLINE
  5
23B
100
AcDbEntity
  8
0
 62
1
420
16711680
370
-1
 48
1.0
  6
BYLAYER
100
AcDbSpline
 70
8
 71
3
 72
8
 73
4
 74
0
 40
0.0
 40
0.0
 40
0.0
 40
0.0
 40
1.0
 40
1.0
 40
1.0
 40
1.0
 10
276.1660922369932791
 20
-31.0914163794518288
 30
0.0
 10
277.1256633295038228
 20
-30.3090978718748296
 30
0.0
 10
278.3330597953936376
 20
-29.9179386180863283
 30
0.0
 10
279.7882816346627237
 20
-29.9179386180863283
 30
0.0
  0
ARC
  5
23C
100
AcDbEntity
  8
0
 62
1
420
16711680
370
-1
 48
1.0
  6
BYLAYER
100
AcDbCircle
 10
279.9181484816968464
 20
-35.8226708124311699
 30
0.0
 40
5.9061601472437966
100
AcDbArc
 50
62.8724968317079842
 51
91.2599424618880732
  0
ARC
  5
23D
100
AcDbEntity
  8
0
 62
1
420
16711680
370
-1
 48
1.0
  6
BYLAYER
100
AcDbCircle
 10
280.0541294787371953
 20
-35.3201663451442869
 30
0.0
 40
5.3980132432315928
100
AcDbArc
 50
32.3018016359732627
 51
61.7249599982899326
  0
ARC
  5
23E
100
AcDbEntity
  8
0
 62
1
420
16711680
370
-1
 48
1.0
  6
BYLAYER
100
AcDbCircle
 10
276.0829820826518812
 20
-37.7472205428617826
 30
0.0
 40
10.0518206961485852
100
AcDbArc
 50
13.4483220676781858
 51
31.8991361611388022
  0
SPLINE
  5
23F
100
AcDbEntity
  8
0
 62
1
420
16711680
370
-1
 48
1.0
  6
BYLAYER
100
AcDbSpline
 70
8
 71
3
 72
8
 73
4
 74
0
 40
0.0
 40
0.0
 40
0.0
 40
0.0
 40
1.0
 40
1.0
 40
1.0
 40
1.0
 10
285.8591826686360946
 20
-35.4094862957492182
 30
0.0
 10
286.1600744023195944
 20
-36.578040374199901
 30
0.0
 10
286.3105202691613158
 20
-38.1536189069423912
 30
0.0
 10
286.3105202691613158
 20
-40.1362218939766962
 30
0.0
  0
SPLINE
  5
240
100
AcDbEntity
  8
0
 62
1
420
16711680
370
-1
 48
1.0
  6
BYLAYER
100
AcDbSpline
 70
8
 71
3
 72
8
 73
4
 74
0
 40
0.0
 40
0.0
 40
0.0
 40
0.0
 40
1.0
 40
1.0
 40
1.0
 40
1.0
 10
286.3105202691613158
 20
-40.1362218939766962
 30
0.0
 10
286.3105202691613158
 20
-42.482083264948848
 30
0.0
 10
286.0692598063351397
 20
-44.3760599595163825
 30
0.0
 10
285.5867388806827307
 20
-45.8181519776792996
 30
0.0
  0
SPLINE
  5
241
100
AcDbEntity
  8
0
 62
1
420
16711680
370
-1
 48
1.0
  6
BYLAYER
100
AcDbSpline
 70
8
 71
3
 72
8
 73
4
 74
0
 40
0.0
 40
0.0
 40
0.0
 40
0.0
 40
1.0
 40
1.0
 40
1.0
 40
1.0
 10
285.5867388806827307
 20
-45.8181519776792996
 30
0.0
 10
285.1042179550303217
 20
-47.2602439958422238
 30
0.0
 10
284.3831719459489022
 20
-48.3746375622298785
 30
0.0
 10
283.4236008534383586
 20
-49.161332676842278
 30
0.0
  0
SPLINE
  5
242
100
AcDbEntity
  8
0
 62
1
420
16711680
370
-1
 48
1.0
  6
BYLAYER
100
AcDbSpline
 70
8
 71
3
 72
8
 73
4
 74
0
 40
0.0
 40
0.0
 40
0.0
 40
0.0
 40
1.0
 40
1.0
 40
1.0
 40
1.0
 10
283.4236008534383586
 20
-49.161332676842278
 30
0.0
 10
282.464029760927815
 20
-49.9480277914546775
 30
0.0
 10
281.2522566880026034
 20
-50.3413753487608702
 30
0.0
 10
279.7882816346627237
 20
-50.3413753487608702
 30
0.0
  0
SPLINE
  5
243
100
AcDbEntity
  8
0
 62
1
420
16711680
370
-1
 48
1.0
  6
BYLAYER
100
AcDbSpline
 70
8
 71
3
 72
8
 73
4
 74
0
 40
0.0
 40
0.0
 40
0.0
 40
0.0
 40
1.0
 40
1.0
 40
1.0
 40
1.0
 10
279.7882816346627237
 20
-50.3413753487608702
 30
0.0
 10
277.8603862355708998
 20
-50.3413753487608702
 30
0.0
 10
276.3460802013239004
 20
-49.6498714371683363
 30
0.0
 10
275.2453635319218961
 20
-48.2668636139832614
 30
0.0
  0
SPLINE
  5
244
100
AcDbEntity
  8
0
 62
1
420
16711680
370
-1
 48
1.0
  6
BYLAYER
100
AcDbSpline
 70
8
 71
3
 72
8
 73
4
 74
0
 40
0.0
 40
0.0
 40
0.0
 40
0.0
 40
1.0
 40
1.0
 40
1.0
 40
1.0
 10
275.2453635319218961
 20
-48.2668636139832614
 30
0.0
 10
273.9258165107500531
 20
-46.6037529405328499
 30
0.0
 10
273.2660430001641316
 20
-43.8935390338639948
 30
0.0
 10
273.2660430001641316
 20
-40.1362218939766962
 30
0.0
  0
SPLINE
  5
245
100
AcDbEntity
  8
0
 62
1
420
16711680
370
-1
 48
1.0
  6
BYLAYER
100
AcDbSpline
 70
8
 71
3
 72
8
 73
4
 74
0
 40
0.0
 40
0.0
 40
0.0
 40
0.0
 40
1.0
 40
1.0
 40
1.0
 40
1.0
 10
275.7902511078286807
 20
-40.1362218939766962
 30
0.0
 10
275.7902511078286807
 20
-43.4186771705235515
 30
0.0
 10
276.1748454510640727
 20
-45.6036982329449074
 30
0.0
 10
276.9440341375349135
 20
-46.691285081240764
 30
0.0
  0
SPLINE
  5
246
100
AcDbEntity
  8
0
 62
1
420
16711680
370
-1
 48
1.0
  6
BYLAYER
100
AcDbSpline
 70
8
 71
3
 72
8
 73
4
 74
0
 40
0.0
 40
0.0
 40
0.0
 40
0.0
 40
1.0
 40
1.0
 40
1.0
 40
1.0
 10
276.9440341375349135
 20
-46.691285081240764
 30
0.0
 10
277.7132228240056975
 20
-47.7788719295366278
 30
0.0
 10
278.6613053230482819
 20
-48.3226653536845561
 30
0.0
 10
279.7882816346627237
 20
-48.3226653536845561
 30
0.0
  0
SPLINE
  5
247
100
AcDbEntity
  8
0
 62
1
420
16711680
370
-1
 48
1.0
  6
BYLAYER
100
AcDbSpline
 70
8
 71
3
 72
8
 73
4
 74
0
 40
0.0
 40
0.0
 40
0.0
 40
0.0
 40
1.0
 40
1.0
 40
1.0
 40
1.0
 10
279.7882816346627237
 20
-48.3226653536845561
 30
0.0
 10
280.9152579462771655
 20
-48.3226653536845561
 30
0.0
 10
281.86334044531975
 20
-47.7766836260189294
 30
0.0
 10
282.6325291317905339
 20
-46.6847201706876689
 30
0.0
  0
SPLINE
  5
248
100
AcDbEntity
  8
0
 62
1
420
16711680
370
-1
 48
1.0
  6
BYLAYER
100
AcDbSpline
 70
8
 71
3
 72
8
 73
4
 74
0
 40
0.0
 40
0.0
 40
0.0
 40
0.0
 40
1.0
 40
1.0
 40
1.0
 40
1.0
 10
282.6325291317905339
 20
-46.6847201706876689
 30
0.0
 10
283.4017178182614316
 20
-45.5927567153564155
 30
0.0
 10
283.7863121614967667
 20
-43.4099239564527579
 30
0.0
 10
283.7863121614967667
 20
-40.1362218939766962
 30
0.0
  0
SPLINE
  5
249
100
AcDbEntity
  8
0
 62
1
420
16711680
370
-1
 48
1.0
  6
BYLAYER
100
AcDbSpline
 70
8
 71
3
 72
8
 73
4
 74
0
 40
0.0
 40
0.0
 40
0.0
 40
0.0
 40
1.0
 40
1.0
 40
1.0
 40
1.0
 10
283.7863121614967667
 20
-40.1362218939766962
 30
0.0
 10
283.7863121614967667
 20
-36.8428250998413489
 30
0.0
 10
283.4017178182614316
 20
-34.65506865802287
 30
0.0
 10
282.6325291317905339
 20
-33.5729525685212593
 30
0.0
  0
SPLINE
  5
24A
100
AcDbEntity
  8
0
 62
1
420
16711680
370
-1
 48
1.0
  6
BYLAYER
100
AcDbSpline
 70
8
 71
3
 72
8
 73
4
 74
0
 40
0.0
 40
0.0
 40
0.0
 40
0.0
 40
1.0
 40
1.0
 40
1.0
 40
1.0
 10
282.6325291317905339
 20
-33.5729525685212593
 30
0.0
 10
281.86334044531975
 20
-32.4908364790196345
 30
0.0
 10
280.906504732206372
 20
-31.9497784342688327
 30
0.0
 10
279.7620219924503431
 20
-31.9497784342688327
 30
0.0
  0
ARC
  5
24B
100
AcDbEntity
  8
0
 62
1
420
16711680
370
-1
 48
1.0
  6
BYLAYER
100
AcDbCircle
 10
279.6988848239877257
 20
-35.0919129564950083
 30
0.0
 40
3.1427687884740707
100
AcDbArc
 50
88.8488696100580739
 51
147.0863225875529565
  0
SPLINE
  5
24C
100
AcDbEntity
  8
0
 62
1
420
16711680
370
-1
 48
1.0
  6
BYLAYER
100
AcDbSpline
 70
8
 71
3
 72
8
 73
4
 74
0
 40
0.0
 40
0.0
 40
0.0
 40
0.0
 40
1.0
 40
1.0
 40
1.0
 40
1.0
 10
277.0605612998522815
 20
-33.384211390119809
 30
0.0
 10
276.2136878385032333
 20
-34.6030964494775404
 30
0.0
 10
275.7902511078286807
 20
-36.8537666174298408
 30
0.0
 10
275.7902511078286807
 20
-40.1362218939766962
 30
0.0
  0
LINE
  5
24D
100
AcDbEntity
  8
0
 62
1
420
16711680
370
-1
 48
1.0
  6
BYLAYER
100
AcDbLine
 10
297.3133103561464168
 20
-35.5112424093221719
 30
0.0
 11
301.1340882980469473
 21
-35.5112424093221719
 31
0.0
  0
LINE
  5
24E
100
AcDbEntity
  8
0
 62
1
420
16711680
370
-1
 48
1.0
  6
BYLAYER
100
AcDbLine
 10
301.1340882980469473
 20
-35.5112424093221719
 30
0.0
 11
304.9384539635647116
 21
-47.1081569013622143
 31
0.0
  0
LINE
  5
24F
100
AcDbEntity
  8
0
 62
1
420
16711680
370
-1
 48
1.0
  6
BYLAYER
100
AcDbLine
 10
304.9384539635647116
 20
-47.1081569013622143
 30
0.0
 11
309.1695388150336612
 21
-35.5112424093221719
 31
0.0
  0
LINE
  5
250
100
AcDbEntity
  8
0
 62
1
420
16711680
370
-1
 48
1.0
  6
BYLAYER
100
AcDbLine
 10
309.1695388150336612
 20
-35.5112424093221719
 30
0.0
 11
312.7014606925980615
 21
-35.5112424093221719
 31
0.0
  0
LINE
  5
251
100
AcDbEntity
  8
0
 62
1
420
16711680
370
-1
 48
1.0
  6
BYLAYER
100
AcDbLine
 10
312.7014606925980615
 20
-35.5112424093221719
 30
0.0
 11
312.7014606925980615
 21
-50.0
 31
0.0
  0
LINE
  5
252
100
AcDbEntity
  8
0
 62
1
420
16711680
370
-1
 48
1.0
  6
BYLAYER
100
AcDbLine
 10
312.7014606925980615
 20
-50.0
 30
0.0
 11
310.2461841457409832
 21
-50.0
 31
0.0
  0
LINE
  5
253
100
AcDbEntity
  8
0
 62
1
420
16711680
370
-1
 48
1.0
  6
BYLAYER
100
AcDbLine
 10
310.2461841457409832
 20
-50.0
 30
0.0
 11
310.2461841457409832
 21
-38.3341539471524726
 31
0.0
  0
LINE
  5
254
100
AcDbEntity
  8
0
 62
1
420
16711680
370
-1
 48
1.0
  6
BYLAYER
100
AcDbLine
 10
310.2461841457409832
 20
-38.3341539471524726
 30
0.0
 11
305.9625800098473292
 21
-50.0
 31
0.0
  0
LINE
  5
255
100
AcDbEntity
  8
0
 62
1
420
16711680
370
-1
 48
1.0
  6
BYLAYER
100
AcDbLine
 10
305.9625800098473292
 20
-50.0
 30
0.0
 11
303.7666174298375381
 21
-50.0
 31
0.0
  0
LINE
  5
256
100
AcDbEntity
  8
0
 62
1
420
16711680
370
-1
 48
1.0
  6
BYLAYER
100
AcDbLine
 10
303.7666174298375381
 20
-50.0
 30
0.0
 11
299.712785163302101
 21
-37.7761365501395048
 31
0.0
  0
LINE
  5
257
100
AcDbEntity
  8
0
 62
1
420
16711680
370
-1
 48
1.0
  6
BYLAYER
100
AcDbLine
 10
299.712785163302101
 20
-37.7761365501395048
 30
0.0
 11
299.712785163302101
 21
-50.0
 31
0.0
  0
LINE
  5
258
100
AcDbEntity
  8
0
 62
1
420
16711680
370
-1
 48
1.0
  6
BYLAYER
100
AcDbLine
 10
299.712785163302101
 20
-50.0
 30
0.0
 11
297.3133103561464168
 21
-50.0
 31
0.0
  0
LINE
  5
259
100
AcDbEntity
  8
0
 62
1
420
16711680
370
-1
 48
1.0
  6
BYLAYER
100
AcDbLine
 10
297.3133103561464168
 20
-50.0
 30
0.0
 11
297.3133103561464168
 21
-35.5112424093221719
 31
0.0
  0
LINE
  5
25A
100
AcDbEntity
  8
0
 62
1
420
16711680
370
-1
 48
1.0
  6
BYLAYER
100
AcDbLine
 10
316.5222386344985921
 20
-35.5112424093221719
 30
0.0
 11
320.3430165763991226
 21
-35.5112424093221719
 31
0.0
  0
LINE
  5
25B
100
AcDbEntity
  8
0
 62
1
420
16711680
370
-1
 48
1.0
  6
BYLAYER
100
AcDbLine
 10
320.3430165763991226
 20
-35.5112424093221719
 30
0.0
 11
324.1473822419169437
 21
-47.1081569013622143
 31
0.0
  0
LINE
  5
25C
100
AcDbEntity
  8
0
 62
1
420
16711680
370
-1
 48
1.0
  6
BYLAYER
100
AcDbLine
 10
324.1473822419169437
 20
-47.1081569013622143
 30
0.0
 11
328.3784670933858365
 21
-35.5112424093221719
 31
0.0
  0
LINE
  5
25D
100
AcDbEntity
  8
0
 62
1
420
16711680
370
-1
 48
1.0
  6
BYLAYER
100
AcDbLine
 10
328.3784670933858365
 20
-35.5112424093221719
 30
0.0
 11
331.9103889709502937
 21
-35.5112424093221719
 31
0.0
  0
LINE
  5
25E
100
AcDbEntity
  8
0
 62
1
420
16711680
370
-1
 48
1.0
  6
BYLAYER
100
AcDbLine
 10
331.9103889709502937
 20
-35.5112424093221719
 30
0.0
 11
331.9103889709502937
 21
-50.0
 31
0.0
  0
LINE
  5
25F
100
AcDbEntity
  8
0
 62
1
420
16711680
370
-1
 48
1.0
  6
BYLAYER
100
AcDbLine
 10
331.9103889709502937
 20
-50.0
 30
0.0
 11
329.4551124240932154
 21
-50.0
 31
0.0
  0
LINE
  5
260
100
AcDbEntity
  8
0
 62
1
420
16711680
370
-1
 48
1.0
  6
BYLAYER
100
AcDbLine
 10
329.4551124240932154
 20
-50.0
 30
0.0
 11
329.4551124240932154
 21
-38.3341539471524726
 31
0.0
  0
LINE
  5
261
100
AcDbEntity
  8
0
 62
1
420
16711680
370
-1
 48
1.0
  6
BYLAYER
100
AcDbLine
 10
329.4551124240932154
 20
-38.3341539471524726
 30
0.0
 11
325.1715082881995613
 21
-50.0
 31
0.0
  0
LINE
  5
262
100
AcDbEntity
  8
0
 62
1
420
16711680
370
-1
 48
1.0
  6
BYLAYER
100
AcDbLine
 10
325.1715082881995613
 20
-50.0
 30
0.0
 11
322.9755457081897134
 21
-50.0
 31
0.0
  0
LINE
  5
263
100
AcDbEntity
  8
0
 62
1
420
16711680
370
-1
 48
1.0
  6
BYLAYER
100
AcDbLine
 10
322.9755457081897134
 20
-50.0
 30
0.0
 11
318.9217134416543331
 21
-37.7761365501395048
 31
0.0
  0
LINE
  5
264
100
AcDbEntity
  8
0
 62
1
420
16711680
370
-1
 48
1.0
  6
BYLAYER
100
AcDbLine
 10
318.9217134416543331
 20
-37.7761365501395048
 30
0.0
 11
318.9217134416543331
 21
-50.0
 31
0.0
  0
LINE
  5
265
100
AcDbEntity
  8
0
 62
1
420
16711680
370
-1
 48
1.0
  6
BYLAYER
100
AcDbLine
 10
318.9217134416543331
 20
-50.0
 30
0.0
 11
316.5222386344985921
 21
-50.0
 31
0.0
  0
LINE
  5
266
100
AcDbEntity
  8
0
 62
1
420
16711680
370
-1
 48
1.0
  6
BYLAYER
100
AcDbLine
 10
316.5222386344985921
 20
-50.0
 30
0.0
 11
316.5222386344985921
 21
-35.5112424093221719
 31
0.0
  0
LINE
  5
267
100
AcDbEntity
  8
0
 62
1
420
16711680
370
-1
 48
1.0
  6
BYLAYER
100
AcDbLine
 10
609.3878220909240326
 20
-32.3994748071557837
 30
0.0
 11
609.3878220909240326
 21
-29.8358772361726921
 31
0.0
  0
LINE
  5
268
100
AcDbEntity
  8
0
 62
1
420
16711680
370
-1
 48
1.0
  6
BYLAYER
100
AcDbLine
 10
609.3878220909240326
 20
-29.8358772361726921
 30
0.0
 11
611.8693582799934347
 21
-29.8358772361726921
 31
0.0
  0
LINE
  5
269
100
AcDbEntity
  8
0
 62
1
420
16711680
370
-1
 48
1.0
  6
BYLAYER
100
AcDbLine
 10
611.8693582799934347
 20
-29.8358772361726921
 30
0.0
 11
611.8693582799934347
 21
-32.3994748071557837
 31
0.0
  0
SPLINE
  5
26A
100
AcDbEntity
  8
0
 62
1
420
16711680
370
-1
 48
1.0
  6
BYLAYER
100
AcDbSpline
 70
8
 71
3
 72
8
 73
4
 74
0
 40
0.0
 40
0.0
 40
0.0
 40
0.0
 40
1.0
 40
1.0
 40
1.0
 40
1.0
 10
611.8693582799934347
 20
-32.3994748071557837
 30
0.0
 10
614.4165435745937884
 20
-32.5373379287707536
 30
0.0
 10
616.4265003555992735
 20
-33.3043383117238747
 30
0.0
 10
617.8992286230100035
 20
-34.7004759560151399
 30
0.0
  0
ARC
  5
26B
100
AcDbEntity
  8
0
 62
1
420
16711680
370
-1
 48
1.0
  6
BYLAYER
100
AcDbCircle
 10
613.2322527176669382
 20
-39.7524428208940321
 30
0.0
 40
6.8777200659002409
100
AcDbArc
 50
358.7442665196564917
 51
47.2684391624094999
  0
ARC
  5
26C
100
AcDbEntity
  8
0
 62
1
420
16711680
370
-1
 48
1.0
  6
BYLAYER
100
AcDbCircle
 10
613.090748945302721
 20
-40.0260827056570889
 30
0.0
 40
7.0186484462620573
100
AcDbArc
 50
314.0023505109475082
 51
1.0034522507453836
  0
SPLINE
  5
26D
100
AcDbEntity
  8
0
 62
1
420
16711680
370
-1
 48
1.0
  6
BYLAYER
100
AcDbSpline
 70
8
 71
3
 72
8
 73
4
 74
0
 40
0.0
 40
0.0
 40
0.0
 40
0.0
 40
1.0
 40
1.0
 40
1.0
 40
1.0
 10
617.9665189561792431
 20
-45.0746758575414788
 30
0.0
 10
616.5386509108813016
 20
-46.4937906887685699
 30
0.0
 10
614.5062640188193654
 20
-47.2755621204661409
 30
0.0
 10
611.8693582799934347
 20
-47.419990152634206
 30
0.0
  0
LINE
  5
26E
100
AcDbEntity
  8
0
 62
1
420
16711680
370
-1
 48
1.0
  6
BYLAYER
100
AcDbLine
 10
611.8693582799934347
 20
-47.419990152634206
 30
0.0
 11
611.8693582799934347
 21
-50.0000000000000355
 31
0.0
  0
LINE
  5
26F
100
AcDbEntity
  8
0
 62
1
420
16711680
370
-1
 48
1.0
  6
BYLAYER
100
AcDbLine
 10
611.8693582799934347
 20
-50.0000000000000355
 30
0.0
 11
609.3878220909240326
 21
-50.0000000000000355
 31
0.0
  0
LINE
  5
270
100
AcDbEntity
  8
0
 62
1
420
16711680
370
-1
 48
1.0
  6
BYLAYER
100
AcDbLine
 10
609.3878220909240326
 20
-50.0000000000000355
 30
0.0
 11
609.3878220909240326
 21
-47.419990152634206
 31
0.0
  0
SPLINE
  5
271
100
AcDbEntity
  8
0
 62
1
420
16711680
370
-1
 48
1.0
  6
BYLAYER
100
AcDbSpline
 70
8
 71
3
 72
8
 73
4
 74
0
 40
0.0
 40
0.0
 40
0.0
 40
0.0
 40
1.0
 40
1.0
 40
1.0
 40
1.0
 10
609.3878220909240326
 20
-47.419990152634206
 30
0.0
 10
607.0222659882925882
 20
-47.3302697084085935
 30
0.0
 10
605.0527928223644949
 20
-46.609770775206556
 30
0.0
 10
603.4794025931396391
 20
-45.2584933530281006
 30
0.0
  0
SPLINE
  5
272
100
AcDbEntity
  8
0
 62
1
420
16711680
370
-1
 48
1.0
  6
BYLAYER
100
AcDbSpline
 70
8
 71
3
 72
8
 73
4
 74
0
 40
0.0
 40
0.0
 40
0.0
 40
0.0
 40
1.0
 40
1.0
 40
1.0
 40
1.0
 10
603.4794025931396391
 20
-45.2584933530281006
 30
0.0
 10
601.9060123639148969
 20
-43.9072159308496452
 30
0.0
 10
601.1193172493025259
 20
-42.1221073362875771
 30
0.0
 10
601.1193172493025259
 20
-39.9031675693419032
 30
0.0
  0
SPLINE
  5
273
100
AcDbEntity
  8
0
 62
1
420
16711680
370
-1
 48
1.0
  6
BYLAYER
100
AcDbSpline
 70
8
 71
3
 72
8
 73
4
 74
0
 40
0.0
 40
0.0
 40
0.0
 40
0.0
 40
1.0
 40
1.0
 40
1.0
 40
1.0
 10
601.1193172493025259
 20
-39.9031675693419032
 30
0.0
 10
601.1193172493025259
 20
-37.6754745883254358
 30
0.0
 10
601.9038240603971417
 20
-35.8931013731604907
 30
0.0
 10
603.4728376825866007
 20
-34.5560479238470748
 30
0.0
  0
SPLINE
  5
274
100
AcDbEntity
  8
0
 62
1
420
16711680
370
-1
 48
1.0
  6
BYLAYER
100
AcDbSpline
 70
8
 71
3
 72
8
 73
4
 74
0
 40
0.0
 40
0.0
 40
0.0
 40
0.0
 40
1.0
 40
1.0
 40
1.0
 40
1.0
 10
603.4728376825866007
 20
-34.5560479238470748
 30
0.0
 10
605.0418513047759461
 20
-33.2189944745336589
 30
0.0
 10
607.0135127742217946
 20
-32.5001367689698952
 30
0.0
 10
609.3878220909240326
 20
-32.3994748071557837
 30
0.0
  0
LINE
  5
275
100
AcDbEntity
  8
0
 62
1
420
16711680
370
-1
 48
1.0
  6
BYLAYER
100
AcDbLine
 10
611.8693582799934347
 20
-34.6643689479731165
 30
0.0
 11
611.8693582799934347
 21
-45.1419661907106899
 31
0.0
  0
SPLINE
  5
276
100
AcDbEntity
  8
0
 62
1
420
16711680
370
-1
 48
1.0
  6
BYLAYER
100
AcDbSpline
 70
8
 71
3
 72
8
 73
4
 74
0
 40
0.0
 40
0.0
 40
0.0
 40
0.0
 40
1.0
 40
1.0
 40
1.0
 40
1.0
 10
611.8693582799934347
 20
-45.1419661907106899
 30
0.0
 10
613.5784233273154769
 20
-45.0609989605558638
 30
0.0
 10
614.9242299906997005
 20
-44.5658952896767175
 30
0.0
 10
615.9067782701461056
 20
-43.6566551780732368
 30
0.0
  0
SPLINE
  5
277
100
AcDbEntity
  8
0
 62
1
420
16711680
370
-1
 48
1.0
  6
BYLAYER
100
AcDbSpline
 70
8
 71
3
 72
8
 73
4
 74
0
 40
0.0
 40
0.0
 40
0.0
 40
0.0
 40
1.0
 40
1.0
 40
1.0
 40
1.0
 10
615.9067782701461056
 20
-43.6566551780732368
 30
0.0
 10
616.889326549592397
 20
-42.7474150664697561
 30
0.0
 10
617.3806006893156564
 20
-41.4962525302259806
 30
0.0
 10
617.3806006893156564
 20
-39.9031675693419032
 30
0.0
  0
SPLINE
  5
278
100
AcDbEntity
  8
0
 62
1
420
16711680
370
-1
 48
1.0
  6
BYLAYER
100
AcDbSpline
 70
8
 71
3
 72
8
 73
4
 74
0
 40
0.0
 40
0.0
 40
0.0
 40
0.0
 40
1.0
 40
1.0
 40
1.0
 40
1.0
 10
617.3806006893156564
 20
-39.9031675693419032
 30
0.0
 10
617.3806006893156564
 20
-38.3385305541879049
 30
0.0
 10
616.8986268395426578
 20
-37.0994036872914634
 30
0.0
 10
615.9346791399966605
 20
-36.185786968652593
 30
0.0
  0
SPLINE
  5
279
100
AcDbEntity
  8
0
 62
1
420
16711680
370
-1
 48
1.0
  6
BYLAYER
100
AcDbSpline
 70
8
 71
3
 72
8
 73
4
 74
0
 40
0.0
 40
0.0
 40
0.0
 40
0.0
 40
1.0
 40
1.0
 40
1.0
 40
1.0
 10
615.9346791399966605
 20
-36.185786968652593
 30
0.0
 10
614.970731440450777
 20
-35.2721702500137155
 30
0.0
 10
613.6156244871164063
 20
-34.7650309097872281
 30
0.0
 10
611.8693582799934347
 20
-34.6643689479731165
 30
0.0
  0
SPLINE
  5
27A
100
AcDbEntity
  8
0
 62
1
420
16711680
370
-1
 48
1.0
  6
BYLAYER
100
AcDbSpline
 70
8
 71
3
 72
8
 73
4
 74
0
 40
0.0
 40
0.0
 40
0.0
 40
0.0
 40
1.0
 40
1.0
 40
1.0
 40
1.0
 10
609.3878220909240326
 20
-34.6807812243558544
 30
0.0
 10
607.7400295420975453
 20
-34.752995240439887
 30
0.0
 10
606.4068056239400448
 20
-35.2393456972482468
 30
0.0
 10
605.3881503364516448
 20
-36.139832594780934
 30
0.0
  0
SPLINE
  5
27B
100
AcDbEntity
  8
0
 62
1
420
16711680
370
-1
 48
1.0
  6
BYLAYER
100
AcDbSpline
 70
8
 71
3
 72
8
 73
4
 74
0
 40
0.0
 40
0.0
 40
0.0
 40
0.0
 40
1.0
 40
1.0
 40
1.0
 40
1.0
 10
605.3881503364516448
 20
-36.139832594780934
 30
0.0
 10
604.3694950489632447
 20
-37.0403194923136212
 30
0.0
 10
603.8601674052191584
 20
-38.2947644838339443
 30
0.0
 10
603.8601674052191584
 20
-39.9031675693419032
 30
0.0
  0
SPLINE
  5
27C
100
AcDbEntity
  8
0
 62
1
420
16711680
370
-1
 48
1.0
  6
BYLAYER
100
AcDbSpline
 70
8
 71
3
 72
8
 73
4
 74
0
 40
0.0
 40
0.0
 40
0.0
 40
0.0
 40
1.0
 40
1.0
 40
1.0
 40
1.0
 10
603.8601674052191584
 20
-39.9031675693419032
 30
0.0
 10
603.8601674052191584
 20
-41.4962525302259806
 30
0.0
 10
604.3629301384102064
 20
-42.7474150664697561
 30
0.0
 10
605.3684556047924161
 20
-43.6566551780732368
 30
0.0
  0
SPLINE
  5
27D
100
AcDbEntity
  8
0
 62
1
420
16711680
370
-1
 48
1.0
  6
BYLAYER
100
AcDbSpline
 70
8
 71
3
 72
8
 73
4
 74
0
 40
0.0
 40
0.0
 40
0.0
 40
0.0
 40
1.0
 40
1.0
 40
1.0
 40
1.0
 10
605.3684556047924161
 20
-43.6566551780732368
 30
0.0
 10
606.3739810711746259
 20
-44.5658952896767175
 30
0.0
 10
607.7137698998851647
 20
-45.0566223535204671
 30
0.0
 10
609.3878220909240326
 20
-45.1288363696044996
 30
0.0
  0
LINE
  5
27E
100
AcDbEntity
  8
0
 62
1
420
16711680
370
-1
 48
1.0
  6
BYLAYER
100
AcDbLine
 10
609.3878220909240326
 20
-45.1288363696044996
 30
0.0
 11
609.3878220909240326
 21
-34.6807812243558544
 31
0.0
  0
ARC
  5
27F
100
AcDbEntity
  8
0
 62
1
420
16711680
370
-1
 48
1.0
  6
BYLAYER
100
AcDbCircle
 10
626.4636365668827693
 20
-41.3985164463724615
 30
0.0
 40
9.1282760698371472
100
AcDbArc
 50
292.1912016386555706
 51
311.6970897371518845
  0
ARC
  5
280
100
AcDbEntity
  8
0
 62
1
420
16711680
370
-1
 48
1.0
  6
BYLAYER
100
AcDbCircle
 10
627.2604358910797373
 20
-42.7359473662581095
 30
0.0
 40
7.5925253024715857
100
AcDbArc
 50
269.5568064539475017
 51
290.4353953968859514
  0
SPLINE
  5
281
100
AcDbEntity
  8
0
 62
1
420
16711680
370
-1
 48
1.0
  6
BYLAYER
100
AcDbSpline
 70
8
 71
3
 72
8
 73
4
 74
0
 40
0.0
 40
0.0
 40
0.0
 40
0.0
 40
1.0
 40
1.0
 40
1.0
 40
1.0
 10
627.2017068767438559
 20
-50.3282455276547225
 30
0.0
 10
625.610810219377413
 20
-50.3282455276547225
 30
0.0
 10
624.3880956288637663
 20
-49.9392745773839195
 30
0.0
 10
623.5335631052026883
 20
-49.1613326768423136
 30
0.0
  0
ARC
  5
282
100
AcDbEntity
  8
0
 62
1
420
16711680
370
-1
 48
1.0
  6
BYLAYER
100
AcDbCircle
 10
626.1033295583896461
 20
-46.2902388283001471
 30
0.0
 40
3.853164869436875
100
AcDbArc
 50
178.3489746815337469
 51
228.1699341544690469
  0
ARC
  5
283
100
AcDbEntity
  8
0
 62
1
420
16711680
370
-1
 48
1.0
  6
BYLAYER
100
AcDbCircle
 10
626.2143448962087859
 20
-46.1345978574379245
 30
0.0
 40
3.9628318339946342
100
AcDbArc
 50
151.3734180639619922
 51
180.6452033562817974
  0
ARC
  5
284
100
AcDbEntity
  8
0
 62
1
420
16711680
370
-1
 48
1.0
  6
BYLAYER
100
AcDbCircle
 10
626.2645606153596418
 20
-46.1317848793539582
 30
0.0
 40
4.0056493681752574
100
AcDbArc
 50
124.3463717830685056
 51
151.7528623776001666
  0
ARC
  5
285
100
AcDbEntity
  8
0
 62
1
420
16711680
370
-1
 48
1.0
  6
BYLAYER
100
AcDbCircle
 10
627.3268697435242984
 20
-47.7789421335591129
 30
0.0
 40
5.9651890645534875
100
AcDbArc
 50
105.1234272819021953
 51
123.8446947528936164
  0
ARC
  5
286
100
AcDbEntity
  8
0
 62
1
420
16711680
370
-1
 48
1.0
  6
BYLAYER
100
AcDbCircle
 10
629.7153374578089142
 20
-58.6268175168874706
 30
0.0
 40
17.0685682047897238
100
AcDbArc
 50
95.9250639468676525
 51
103.3626526803596875
  0
SPLINE
  5
287
100
AcDbEntity
  8
0
 62
1
420
16711680
370
-1
 48
1.0
  6
BYLAYER
100
AcDbSpline
 70
8
 71
3
 72
8
 73
4
 74
0
 40
0.0
 40
0.0
 40
0.0
 40
0.0
 40
1.0
 40
1.0
 40
1.0
 40
1.0
 10
627.9533891350730528
 20
-41.6494337764648321
 30
0.0
 10
629.9359921221073364
 20
-41.4130969965534561
 30
0.0
 10
631.3955905684118761
 20
-41.1318999945292774
 30
0.0
 10
632.3321844739865583
 20
-40.8058427703922888
 30
0.0
  0
ARC
  5
288
100
AcDbEntity
  8
0
 62
1
420
16711680
370
-1
 48
1.0
  6
BYLAYER
100
AcDbCircle
 10
598.5507959947120753
 20
-39.7946120841104474
 30
0.0
 40
33.7965204583036467
100
AcDbArc
 50
358.2853886021895278
 51
359.3763327419951565
  0
SPLINE
  5
289
100
AcDbEntity
  8
0
 62
1
420
16711680
370
-1
 48
1.0
  6
BYLAYER
100
AcDbSpline
 70
8
 71
3
 72
8
 73
4
 74
0
 40
0.0
 40
0.0
 40
0.0
 40
0.0
 40
1.0
 40
1.0
 40
1.0
 40
1.0
 10
632.3453142950927486
 20
-40.1624815361891052
 30
0.0
 10
632.3453142950927486
 20
-39.1624268286011628
 30
0.0
 10
632.1133541222167196
 20
-38.4577930959024314
 30
0.0
 10
631.6494337764647753
 20
-38.0485803380929326
 30
0.0
  0
SPLINE
  5
28A
100
AcDbEntity
  8
0
 62
1
420
16711680
370
-1
 48
1.0
  6
BYLAYER
100
AcDbSpline
 70
8
 71
3
 72
8
 73
4
 74
0
 40
0.0
 40
0.0
 40
0.0
 40
0.0
 40
1.0
 40
1.0
 40
1.0
 40
1.0
 10
631.6494337764647753
 20
-38.0485803380929326
 30
0.0
 10
631.0213906668855088
 20
-37.4949395481153616
 30
0.0
 10
630.0891733683462235
 20
-37.2181191531265725
 30
0.0
 10
628.8527818808469192
 20
-37.2181191531265725
 30
0.0
  0
SPLINE
  5
28B
100
AcDbEntity
  8
0
 62
1
420
16711680
370
-1
 48
1.0
  6
BYLAYER
100
AcDbSpline
 70
8
 71
3
 72
8
 73
4
 74
0
 40
0.0
 40
0.0
 40
0.0
 40
0.0
 40
1.0
 40
1.0
 40
1.0
 40
1.0
 10
628.8527818808469192
 20
-37.2181191531265725
 30
0.0
 10
627.6973576235023984
 20
-37.2181191531265725
 30
0.0
 10
626.8444663274796085
 20
-37.419990152634206
 30
0.0
 10
626.2941079927785495
 20
-37.823732151649466
 30
0.0
  0
SPLINE
  5
28C
100
AcDbEntity
  8
0
 62
1
420
16711680
370
-1
 48
1.0
  6
BYLAYER
100
AcDbSpline
 70
8
 71
3
 72
8
 73
4
 74
0
 40
0.0
 40
0.0
 40
0.0
 40
0.0
 40
1.0
 40
1.0
 40
1.0
 40
1.0
 10
626.2941079927785495
 20
-37.823732151649466
 30
0.0
 10
625.7437496580776042
 20
-38.2274741506647331
 30
0.0
 10
625.3372722796651715
 20
-38.9435964768313738
 30
0.0
 10
625.0746758575414788
 20
-39.9720991301493882
 30
0.0
  0
LINE
  5
28D
100
AcDbEntity
  8
0
 62
1
420
16711680
370
-1
 48
1.0
  6
BYLAYER
100
AcDbLine
 10
625.0746758575414788
 20
-39.9720991301493882
 30
0.0
 11
622.6719185951091049
 21
-39.6438536024947012
 31
0.0
  0
ARC
  5
28E
100
AcDbEntity
  8
0
 62
1
420
16711680
370
-1
 48
1.0
  6
BYLAYER
100
AcDbCircle
 10
628.5378787510404663
 20
-40.7083246147088289
 30
0.0
 40
5.9617604016614623
100
AcDbArc
 50
143.4236719204300812
 51
169.714699980117814
  0
ARC
  5
28F
100
AcDbEntity
  8
0
 62
1
420
16711680
370
-1
 48
1.0
  6
BYLAYER
100
AcDbCircle
 10
627.3695832371005281
 20
-40.1901749506895811
 30
0.0
 40
4.7230940393129597
100
AcDbArc
 50
107.8745176427906216
 51
140.0241277121694168
  0
ARC
  5
290
100
AcDbEntity
  8
0
 62
1
420
16711680
370
-1
 48
1.0
  6
BYLAYER
100
AcDbCircle
 10
629.0297362000592329
 20
-44.8514504254147397
 30
0.0
 40
9.6700836724490848
100
AcDbArc
 50
88.9479422923673866
 51
108.7592707012268107
  0
SPLINE
  5
291
100
AcDbEntity
  8
0
 62
1
420
16711680
370
-1
 48
1.0
  6
BYLAYER
100
AcDbSpline
 70
8
 71
3
 72
8
 73
4
 74
0
 40
0.0
 40
0.0
 40
0.0
 40
0.0
 40
1.0
 40
1.0
 40
1.0
 40
1.0
 10
629.2072870507139442
 20
-35.1829968816675205
 30
0.0
 10
630.4458668417310037
 20
-35.1829968816675205
 30
0.0
 10
631.4513923081130997
 20
-35.3285190655944348
 30
0.0
 10
632.2238634498604597
 20
-35.6195634334482563
 30
0.0
  0
SPLINE
  5
292
100
AcDbEntity
  8
0
 62
1
420
16711680
370
-1
 48
1.0
  6
BYLAYER
100
AcDbSpline
 70
8
 71
3
 72
8
 73
4
 74
0
 40
0.0
 40
0.0
 40
0.0
 40
0.0
 40
1.0
 40
1.0
 40
1.0
 40
1.0
 10
632.2238634498604597
 20
-35.6195634334482563
 30
0.0
 10
632.9963345916078197
 20
-35.9106078013020777
 30
0.0
 10
633.564746430329933
 20
-36.2766015646370477
 30
0.0
 10
633.9290989660265723
 20
-36.7175447234531802
 30
0.0
  0
ARC
  5
293
100
AcDbEntity
  8
0
 62
1
420
16711680
370
-1
 48
1.0
  6
BYLAYER
100
AcDbCircle
 10
630.9171881093038792
 20
-39.1023034646421053
 30
0.0
 40
3.8417029117984445
100
AcDbArc
 50
10.6859120588754042
 51
38.3713361684457794
  0
ARC
  5
294
100
AcDbEntity
  8
0
 62
1
420
16711680
370
-1
 48
1.0
  6
BYLAYER
100
AcDbCircle
 10
620.8477881903941125
 20
-40.2680442947290302
 30
0.0
 40
13.9712879990094443
100
AcDbArc
 50
358.4135208759973921
 51
7.7253643766725881
  0
LINE
  5
295
100
AcDbEntity
  8
0
 62
1
420
16711680
370
-1
 48
1.0
  6
BYLAYER
100
AcDbLine
 10
634.8137206630559604
 20
-40.6548498276711356
 30
0.0
 11
634.8137206630559604
 21
-43.9274577383883482
 31
0.0
  0
SPLINE
  5
296
100
AcDbEntity
  8
0
 62
1
420
16711680
370
-1
 48
1.0
  6
BYLAYER
100
AcDbSpline
 70
8
 71
3
 72
8
 73
4
 74
0
 40
0.0
 40
0.0
 40
0.0
 40
0.0
 40
1.0
 40
1.0
 40
1.0
 40
1.0
 10
634.8137206630559604
 20
-43.9274577383883482
 30
0.0
 10
634.8137206630559604
 20
-46.2120466108649595
 30
0.0
 10
634.8662399474807216
 20
-47.6563269325455821
 30
0.0
 10
634.9712785163302442
 20
-48.2602987034302018
 30
0.0
  0
ARC
  5
297
100
AcDbEntity
  8
0
 62
1
420
16711680
370
-1
 48
1.0
  6
BYLAYER
100
AcDbCircle
 10
640.3972259586499831
 20
-47.3058516646744494
 30
0.0
 40
5.509253560747192
100
AcDbArc
 50
189.9765061515056459
 51
209.2763462441939453
  0
LINE
  5
298
100
AcDbEntity
  8
0
 62
1
420
16711680
370
-1
 48
1.0
  6
BYLAYER
100
AcDbLine
 10
635.5916625635975379
 20
-50.0000000000000355
 30
0.0
 11
633.0280649926144179
 21
-50.0000000000000355
 31
0.0
  0
ARC
  5
299
100
AcDbEntity
  8
0
 62
1
420
16711680
370
-1
 48
1.0
  6
BYLAYER
100
AcDbCircle
 10
637.7802769861092429
 20
-47.7289379352108156
 30
0.0
 40
5.2669955129315342
100
AcDbArc
 50
185.287883500590965
 51
205.5429387176433238
  0
SPLINE
  5
29A
100
AcDbEntity
  8
0
 62
1
420
16711680
370
-1
 48
1.0
  6
BYLAYER
100
AcDbSpline
 70
8
 71
3
 72
8
 73
4
 74
0
 40
0.0
 40
0.0
 40
0.0
 40
0.0
 40
1.0
 40
1.0
 40
1.0
 40
1.0
 10
632.3321844739865583
 20
-42.7293615624487444
 30
0.0
 10
631.4415449422834854
 20
-43.0926199463865984
 30
0.0
 10
630.1044914929700553
 20
-43.401170742382007
 30
0.0
 10
628.3210241260462681
 20
-43.655013950434963
 30
0.0
  0
SPLINE
  5
29B
100
AcDbEntity
  8
0
 62
1
420
16711680
370
-1
 48
1.0
  6
BYLAYER
100
AcDbSpline
 70
8
 71
3
 72
8
 73
4
 74
0
 40
0.0
 40
0.0
 40
0.0
 40
0.0
 40
1.0
 40
1.0
 40
1.0
 40
1.0
 10
628.3210241260462681
 20
-43.655013950434963
 30
0.0
 10
627.312216204387596
 20
-43.8016302861207194
 30
0.0
 10
626.5982821817385684
 20
-43.9657530499480629
 30
0.0
 10
626.1792220580994126
 20
-44.1473822419169863
 30
0.0
  0
ARC
  5
29C
100
AcDbEntity
  8
0
 62
1
420
16711680
370
-1
 48
1.0
  6
BYLAYER
100
AcDbCircle
 10
626.9851963250692961
 20
-46.1124155538067981
 30
0.0
 40
2.1238998177537494
100
AcDbArc
 50
112.3013820343470286
 51
146.6571519617980357
  0
ARC
  5
29D
100
AcDbEntity
  8
0
 62
1
420
16711680
370
-1
 48
1.0
  6
BYLAYER
100
AcDbCircle
 10
626.9716451166344768
 20
-46.0905239619235587
 30
0.0
 40
2.1005744904556023
100
AcDbArc
 50
146.95282145793567
 51
180.5391647724318034
  0
ARC
  5
29E
100
AcDbEntity
  8
0
 62
1
420
16711680
370
-1
 48
1.0
  6
BYLAYER
100
AcDbCircle
 10
626.9648406718487195
 20
-46.1492645248648969
 30
0.0
 40
2.0940397629302963
100
AcDbArc
 50
178.9335559561505136
 51
229.8506039191036336
  0
SPLINE
  5
29F
100
AcDbEntity
  8
0
 62
1
420
16711680
370
-1
 48
1.0
  6
BYLAYER
100
AcDbSpline
 70
8
 71
3
 72
8
 73
4
 74
0
 40
0.0
 40
0.0
 40
0.0
 40
0.0
 40
1.0
 40
1.0
 40
1.0
 40
1.0
 10
625.6146397505333425
 20
-47.7498769079271668
 30
0.0
 10
626.1102904972919987
 20
-48.1864434597078954
 30
0.0
 10
626.8351660375293477
 20
-48.4047267355982598
 30
0.0
 10
627.7892663712457306
 20
-48.4047267355982598
 30
0.0
  0
ARC
  5
2A0
100
AcDbEntity
  8
0
 62
1
420
16711680
370
-1
 48
1.0
  6
BYLAYER
100
AcDbCircle
 10
627.8811647900822663
 20
-43.3449640542837713
 30
0.0
 40
5.0605971693671234
100
AcDbArc
 50
268.9594743850166196
 51
298.7270066155684276
  0
ARC
  5
2A1
100
AcDbEntity
  8
0
 62
1
420
16711680
370
-1
 48
1.0
  6
BYLAYER
100
AcDbCircle
 10
628.4911699793848356
 20
-44.4132066809138948
 30
0.0
 40
3.8307034288686661
100
AcDbArc
 50
298.4055978427205673
 51
334.1404621973876488
  0
SPLINE
  5
2A2
100
AcDbEntity
  8
0
 62
1
420
16711680
370
-1
 48
1.0
  6
BYLAYER
100
AcDbSpline
 70
8
 71
3
 72
8
 73
4
 74
0
 40
0.0
 40
0.0
 40
0.0
 40
0.0
 40
1.0
 40
1.0
 40
1.0
 40
1.0
 10
631.9382898408009623
 20
-46.0840308550796323
 30
0.0
 10
632.2008862629246551
 20
-45.5303900651020612
 30
0.0
 10
632.3321844739865583
 20
-44.7119645494830493
 30
0.0
 10
632.3321844739865583
 20
-43.6287543082225824
 30
0.0
  0
LINE
  5
2A3
100
AcDbEntity
  8
0
 62
1
420
16711680
370
-1
 48
1.0
  6
BYLAYER
100
AcDbLine
 10
632.3321844739865583
 20
-43.6287543082225824
 30
0.0
 11
632.3321844739865583
 21
-42.7293615624487444
 31
0.0
  0
LINE
  5
2A4
100
AcDbEntity
  8
0
 62
1
420
16711680
370
-1
 48
1.0
  6
BYLAYER
100
AcDbLine
 10
638.6312161496799717
 20
-35.5112424093222074
 30
0.0
 11
641.0864926965369932
 21
-35.5112424093222074
 31
0.0
  0
LINE
  5
2A5
100
AcDbEntity
  8
0
 62
1
420
16711680
370
-1
 48
1.0
  6
BYLAYER
100
AcDbLine
 10
641.0864926965369932
 20
-35.5112424093222074
 30
0.0
 11
641.0864926965369932
 21
-41.5411127523387833
 31
0.0
  0
LINE
  5
2A6
100
AcDbEntity
  8
0
 62
1
420
16711680
370
-1
 48
1.0
  6
BYLAYER
100
AcDbLine
 10
641.0864926965369932
 20
-41.5411127523387833
 30
0.0
 11
647.8943049400951395
 21
-41.5411127523387833
 31
0.0
  0
LINE
  5
2A7
100
AcDbEntity
  8
0
 62
1
420
16711680
370
-1
 48
1.0
  6
BYLAYER
100
AcDbLine
 10
647.8943049400951395
 20
-41.5411127523387833
 30
0.0
 11
647.8943049400951395
 21
-35.5112424093222074
 31
0.0
  0
LINE
  5
2A8
100
AcDbEntity
  8
0
 62
1
420
16711680
370
-1
 48
1.0
  6
BYLAYER
100
AcDbLine
 10
647.8943049400951395
 20
-35.5112424093222074
 30
0.0
 11
650.3495814869522746
 21
-35.5112424093222074
 31
0.0
  0
LINE
  5
2A9
100
AcDbEntity
  8
0
 62
1
420
16711680
370
-1
 48
1.0
  6
BYLAYER
100
AcDbLine
 10
650.3495814869522746
 20
-35.5112424093222074
 30
0.0
 11
650.3495814869522746
 21
-50.0000000000000355
 31
0.0
  0
LINE
  5
2AA
100
AcDbEntity
  8
0
 62
1
420
16711680
370
-1
 48
1.0
  6
BYLAYER
100
AcDbLine
 10
650.3495814869522746
 20
-50.0000000000000355
 30
0.0
 11
647.8943049400951395
 21
-50.0000000000000355
 31
0.0
  0
LINE
  5
2AB
100
AcDbEntity
  8
0
 62
1
420
16711680
370
-1
 48
1.0
  6
BYLAYER
100
AcDbLine
 10
647.8943049400951395
 20
-50.0000000000000355
 30
0.0
 11
647.8943049400951395
 21
-43.5729525685212877
 31
0.0
  0
LINE
  5
2AC
100
AcDbEntity
  8
0
 62
1
420
16711680
370
-1
 48
1.0
  6
BYLAYER
100
AcDbLine
 10
647.8943049400951395
 20
-43.5729525685212877
 30
0.0
 11
641.0864926965369932
 21
-43.5729525685212877
 31
0.0
  0
LINE
  5
2AD
100
AcDbEntity
  8
0
 62
1
420
16711680
370
-1
 48
1.0
  6
BYLAYER
100
AcDbLine
 10
641.0864926965369932
 20
-43.5729525685212877
 30
0.0
 11
641.0864926965369932
 21
-50.0000000000000355
 31
0.0
  0
LINE
  5
2AE
100
AcDbEntity
  8
0
 62
1
420
16711680
370
-1
 48
1.0
  6
BYLAYER
100
AcDbLine
 10
641.0864926965369932
 20
-50.0000000000000355
 30
0.0
 11
638.6312161496799717
 21
-50.0000000000000355
 31
0.0
  0
LINE
  5
2AF
100
AcDbEntity
  8
0
 62
1
420
16711680
370
-1
 48
1.0
  6
BYLAYER
100
AcDbLine
 10
638.6312161496799717
 20
-50.0000000000000355
 30
0.0
 11
638.6312161496799717
 21
-35.5112424093222074
 31
0.0
  0
LINE
  5
2B0
100
AcDbEntity
  8
0
 62
1
420
16711680
370
-1
 48
1.0
  6
BYLAYER
100
AcDbLine
 10
663.9652059740685672
 20
-45.3356310520269474
 30
0.0
 11
666.5025439028393066
 21
-45.6474643032989036
 31
0.0
  0
SPLINE
  5
2B1
100
AcDbEntity
  8
0
 62
1
420
16711680
370
-1
 48
1.0
  6
BYLAYER
100
AcDbSpline
 70
8
 71
3
 72
8
 73
4
 74
0
 40
0.0
 40
0.0
 40
0.0
 40
0.0
 40
1.0
 40
1.0
 40
1.0
 40
1.0
 10
666.5025439028393066
 20
-45.6474643032989036
 30
0.0
 10
666.1020843591005587
 20
-47.1311340882980829
 30
0.0
 10
665.3607965424804433
 20
-48.2821817386071785
 30
0.0
 10
664.2786804529788469
 20
-49.1006072542261975
 30
0.0
  0
SPLINE
  5
2B2
100
AcDbEntity
  8
0
 62
1
420
16711680
370
-1
 48
1.0
  6
BYLAYER
100
AcDbSpline
 70
8
 71
3
 72
8
 73
4
 74
0
 40
0.0
 40
0.0
 40
0.0
 40
0.0
 40
1.0
 40
1.0
 40
1.0
 40
1.0
 10
664.2786804529788469
 20
-49.1006072542261975
 30
0.0
 10
663.1965643634772505
 20
-49.9190327698452165
 30
0.0
 10
661.8141036161715647
 20
-50.3282455276547225
 30
0.0
 10
660.1312982110619032
 20
-50.3282455276547225
 30
0.0
  0
SPLINE
  5
2B3
100
AcDbEntity
  8
0
 62
1
420
16711680
370
-1
 48
1.0
  6
BYLAYER
100
AcDbSpline
 70
8
 71
3
 72
8
 73
4
 74
0
 40
0.0
 40
0.0
 40
0.0
 40
0.0
 40
1.0
 40
1.0
 40
1.0
 40
1.0
 10
660.1312982110619032
 20
-50.3282455276547225
 30
0.0
 10
658.0108321024125644
 20
-50.3282455276547225
 30
0.0
 10
656.3302150008206581
 20
-49.6755840035013208
 30
0.0
 10
655.0894469062859571
 20
-48.3702609551945244
 30
0.0
  0
SPLINE
  5
2B4
100
AcDbEntity
  8
0
 62
1
420
16711680
370
-1
 48
1.0
  6
BYLAYER
100
AcDbSpline
 70
8
 71
3
 72
8
 73
4
 74
0
 40
0.0
 40
0.0
 40
0.0
 40
0.0
 40
1.0
 40
1.0
 40
1.0
 40
1.0
 10
655.0894469062859571
 20
-48.3702609551945244
 30
0.0
 10
653.8486788117511423
 20
-47.0649379068877209
 30
0.0
 10
653.2282947644838487
 20
-45.2338749384539938
 30
0.0
 10
653.2282947644838487
 20
-42.8770720498933571
 30
0.0
  0
SPLINE
  5
2B5
100
AcDbEntity
  8
0
 62
1
420
16711680
370
-1
 48
1.0
  6
BYLAYER
100
AcDbSpline
 70
8
 71
3
 72
8
 73
4
 74
0
 40
0.0
 40
0.0
 40
0.0
 40
0.0
 40
1.0
 40
1.0
 40
1.0
 40
1.0
 10
653.2282947644838487
 20
-42.8770720498933571
 30
0.0
 10
653.2282947644838487
 20
-40.4414902346955856
 30
0.0
 10
653.8557907981837616
 20
-38.5502489195251741
 30
0.0
 10
655.1107828655834737
 20
-37.2033481043821155
 30
0.0
  0
SPLINE
  5
2B6
100
AcDbEntity
  8
0
 62
1
420
16711680
370
-1
 48
1.0
  6
BYLAYER
100
AcDbSpline
 70
8
 71
3
 72
8
 73
4
 74
0
 40
0.0
 40
0.0
 40
0.0
 40
0.0
 40
1.0
 40
1.0
 40
1.0
 40
1.0
 10
655.1107828655834737
 20
-37.2033481043821155
 30
0.0
 10
656.3657749329831859
 20
-35.8564472892390569
 30
0.0
 10
657.9933256742709773
 20
-35.1829968816675205
 30
0.0
 10
659.993435089446848
 20
-35.1829968816675205
 30
0.0
  0
SPLINE
  5
2B7
100
AcDbEntity
  8
0
 62
1
420
16711680
370
-1
 48
1.0
  6
BYLAYER
100
AcDbSpline
 70
8
 71
3
 72
8
 73
4
 74
0
 40
0.0
 40
0.0
 40
0.0
 40
0.0
 40
1.0
 40
1.0
 40
1.0
 40
1.0
 10
659.993435089446848
 20
-35.1829968816675205
 30
0.0
 10
661.9322720061272776
 20
-35.1829968816675205
 30
0.0
 10
663.515509601181634
 20
-35.842770392253442
 30
0.0
 10
664.7431478746102584
 20
-37.1623174134252778
 30
0.0
  0
SPLINE
  5
2B8
100
AcDbEntity
  8
0
 62
1
420
16711680
370
-1
 48
1.0
  6
BYLAYER
100
AcDbSpline
 70
8
 71
3
 72
8
 73
4
 74
0
 40
0.0
 40
0.0
 40
0.0
 40
0.0
 40
1.0
 40
1.0
 40
1.0
 40
1.0
 10
664.7431478746102584
 20
-37.1623174134252778
 30
0.0
 10
665.9707861480387692
 20
-38.4818644345971137
 30
0.0
 10
666.5846052847530245
 20
-40.3375458176049406
 30
0.0
 10
666.5846052847530245
 20
-42.7293615624487444
 30
0.0
  0
ARC
  5
2B9
100
AcDbEntity
  8
0
 62
1
420
16711680
370
-1
 48
1.0
  6
BYLAYER
100
AcDbCircle
 10
642.7688652586365379
 20
-42.5773894782326607
 30
0.0
 40
23.8162249003898161
100
AcDbArc
 50
358.062570874120695
 51
359.6343913379508308
  0
LINE
  5
2BA
100
AcDbEntity
  8
0
 62
1
420
16711680
370
-1
 48
1.0
  6
BYLAYER
100
AcDbLine
 10
666.5714754636468342
 20
-43.3825701624815707
 30
0.0
 11
655.765632693254588
 21
-43.3825701624815707
 31
0.0
  0
SPLINE
  5
2BB
100
AcDbEntity
  8
0
 62
1
420
16711680
370
-1
 48
1.0
  6
BYLAYER
100
AcDbSpline
 70
8
 71
3
 72
8
 73
4
 74
0
 40
0.0
 40
0.0
 40
0.0
 40
0.0
 40
1.0
 40
1.0
 40
1.0
 40
1.0
 10
655.765632693254588
 20
-43.3825701624815707
 30
0.0
 10
655.8553531374801651
 20
-44.9756551233656481
 30
0.0
 10
656.3050495103670983
 20
-46.195087258602797
 30
0.0
 10
657.114721811915274
 20
-47.0408665681930458
 30
0.0
  0
ARC
  5
2BC
100
AcDbEntity
  8
0
 62
1
420
16711680
370
-1
 48
1.0
  6
BYLAYER
100
AcDbCircle
 10
660.0476096061081535
 20
-44.2887948061597712
 30
0.0
 40
4.0219062391739309
100
AcDbArc
 50
223.178262474116849
 51
271.3794014022408305
  0
ARC
  5
2BD
100
AcDbEntity
  8
0
 62
1
420
16711680
370
-1
 48
1.0
  6
BYLAYER
100
AcDbCircle
 10
660.2496219635789885
 20
-44.5594873230206829
 30
0.0
 40
3.751523335554924
100
AcDbArc
 50
268.3931971466888626
 51
305.8868049295892888
  0
SPLINE
  5
2BE
100
AcDbEntity
  8
0
 62
1
420
16711680
370
-1
 48
1.0
  6
BYLAYER
100
AcDbSpline
 70
8
 71
3
 72
8
 73
4
 74
0
 40
0.0
 40
0.0
 40
0.0
 40
0.0
 40
1.0
 40
1.0
 40
1.0
 40
1.0
 10
662.4487116363039831
 20
-47.5988839652060065
 30
0.0
 10
663.0855079599540431
 20
-47.1251162536244124
 30
0.0
 10
663.5910060725423136
 20
-46.3706986158980641
 30
0.0
 10
663.9652059740685672
 20
-45.3356310520269474
 30
0.0
  0
LINE
  5
2BF
100
AcDbEntity
  8
0
 62
1
420
16711680
370
-1
 48
1.0
  6
BYLAYER
100
AcDbLine
 10
655.9002133595929536
 20
-41.3638601674052566
 30
0.0
 11
663.9914656162809479
 21
-41.3638601674052566
 31
0.0
  0
SPLINE
  5
2C0
100
AcDbEntity
  8
0
 62
1
420
16711680
370
-1
 48
1.0
  6
BYLAYER
100
AcDbSpline
 70
8
 71
3
 72
8
 73
4
 74
0
 40
0.0
 40
0.0
 40
0.0
 40
0.0
 40
1.0
 40
1.0
 40
1.0
 40
1.0
 10
663.9914656162809479
 20
-41.3638601674052566
 30
0.0
 10
663.8820504403961422
 20
-40.1449751080475181
 30
0.0
 10
663.5724054926417921
 20
-39.2313583894086477
 30
0.0
 10
663.0625307730182385
 20
-38.6230100114886312
 30
0.0
  0
ARC
  5
2C1
100
AcDbEntity
  8
0
 62
1
420
16711680
370
-1
 48
1.0
  6
BYLAYER
100
AcDbCircle
 10
660.1195056731959312
 20
-40.9560719131219813
 30
0.0
 40
3.7556057534089358
100
AcDbArc
 50
38.4053676920010147
 51
91.472807412306409
  0
ARC
  5
2C2
100
AcDbEntity
  8
0
 62
1
420
16711680
370
-1
 48
1.0
  6
BYLAYER
100
AcDbCircle
 10
659.9266147008190728
 20
-41.10168834447866
 30
0.0
 40
3.9011717697898294
100
AcDbArc
 50
88.5845982488480814
 51
134.8129823301286763
  0
SPLINE
  5
2C3
100
AcDbEntity
  8
0
 62
1
420
16711680
370
-1
 48
1.0
  6
BYLAYER
100
AcDbSpline
 70
8
 71
3
 72
8
 73
4
 74
0
 40
0.0
 40
0.0
 40
0.0
 40
0.0
 40
1.0
 40
1.0
 40
1.0
 40
1.0
 10
657.1770884621696496
 20
-38.334153947152501
 30
0.0
 10
656.4089939274576864
 20
-39.089118660758281
 30
0.0
 10
655.9833688932654923
 20
-40.0990207341758662
 30
0.0
 10
655.9002133595929536
 20
-41.3638601674052566
 30
0.0
  0
LINE
  5
2C4
100
AcDbEntity
  8
0
 62
1
420
16711680
370
-1
 48
1.0
  6
BYLAYER
100
AcDbLine
 10
669.5814869522403114
 20
-55.5539143279173118
 30
0.0
 11
669.5814869522403114
 21
-35.5112424093222074
 31
0.0
  0
LINE
  5
2C5
100
AcDbEntity
  8
0
 62
1
420
16711680
370
-1
 48
1.0
  6
BYLAYER
100
AcDbLine
 10
669.5814869522403114
 20
-35.5112424093222074
 30
0.0
 11
671.8201214508452495
 21
-35.5112424093222074
 31
0.0
  0
LINE
  5
2C6
100
AcDbEntity
  8
0
 62
1
420
16711680
370
-1
 48
1.0
  6
BYLAYER
100
AcDbLine
 10
671.8201214508452495
 20
-35.5112424093222074
 30
0.0
 11
671.8201214508452495
 21
-37.3953717380601063
 31
0.0
  0
ARC
  5
2C7
100
AcDbEntity
  8
0
 62
1
420
16711680
370
-1
 48
1.0
  6
BYLAYER
100
AcDbCircle
 10
676.3724690453703943
 20
-40.5067038369755252
 30
0.0
 40
5.51400544532921
100
AcDbArc
 50
120.0966102075019535
 51
145.6490875667985847
  0
ARC
  5
2C8
100
AcDbEntity
  8
0
 62
1
420
16711680
370
-1
 48
1.0
  6
BYLAYER
100
AcDbCircle
 10
675.8747408512955417
 20
-40.0872991510989962
 30
0.0
 40
4.9065025447627288
100
AcDbArc
 50
88.2840431537907477
 51
117.5230643348121049
  0
ARC
  5
2C9
100
AcDbEntity
  8
0
 62
1
420
16711680
370
-1
 48
1.0
  6
BYLAYER
100
AcDbCircle
 10
676.1277587693114128
 20
-40.9087124394563588
 30
0.0
 40
5.7266984122893998
100
AcDbArc
 50
56.4114338311974848
 51
91.0615398472894242
  0
ARC
  5
2CA
100
AcDbEntity
  8
0
 62
1
420
16711680
370
-1
 48
1.0
  6
BYLAYER
100
AcDbCircle
 10
675.9859960942277439
 20
-40.9673492820498737
 30
0.0
 40
5.8545980529860682
100
AcDbArc
 50
21.3795595909665046
 51
55.573160401913853
  0
ARC
  5
2CB
100
AcDbEntity
  8
0
 62
1
420
16711680
370
-1
 48
1.0
  6
BYLAYER
100
AcDbCircle
 10
672.3075358057677704
 20
-42.5371600425474838
 30
0.0
 40
9.852935381166958
100
AcDbArc
 50
359.3595110239101018
 51
22.0821737729596101
  0
ARC
  5
2CC
100
AcDbEntity
  8
0
 62
1
420
16711680
370
-1
 48
1.0
  6
BYLAYER
100
AcDbCircle
 10
672.4724658774415502
 20
-42.7979180439521798
 30
0.0
 40
9.6885605140492093
100
AcDbArc
 50
336.5707102044238468
 51
0.8907531227589094
  0
ARC
  5
2CD
100
AcDbEntity
  8
0
 62
1
420
16711680
370
-1
 48
1.0
  6
BYLAYER
100
AcDbCircle
 10
675.8263201044904918
 20
-44.2964667758466462
 30
0.0
 40
6.015520929087768
100
AcDbArc
 50
302.3274586931449903
 51
336.9654738367824507
  0
ARC
  5
2CE
100
AcDbEntity
  8
0
 62
1
420
16711680
370
-1
 48
1.0
  6
BYLAYER
100
AcDbCircle
 10
675.819057804454701
 20
-44.3753856532166751
 30
0.0
 40
5.9529138663894479
100
AcDbArc
 50
270.2440268822168719
 51
302.7927197392179437
  0
ARC
  5
2CF
100
AcDbEntity
  8
0
 62
1
420
16711680
370
-1
 48
1.0
  6
BYLAYER
100
AcDbCircle
 10
675.769569418005176
 20
-45.7031523926477945
 30
0.0
 40
4.625698635089786
100
AcDbArc
 50
242.5918938493988435
 51
270.9270663202251512
  0
ARC
  5
2D0
100
AcDbEntity
  8
0
 62
1
420
16711680
370
-1
 48
1.0
  6
BYLAYER
100
AcDbCircle
 10
675.9398935407662066
 20
-45.3577021490665615
 30
0.0
 40
5.0107827921678245
100
AcDbArc
 50
218.8358116848845327
 51
242.6812456919236922
  0
LINE
  5
2D1
100
AcDbEntity
  8
0
 62
1
420
16711680
370
-1
 48
1.0
  6
BYLAYER
100
AcDbLine
 10
672.0367634990973329
 20
-48.4999179386181183
 30
0.0
 11
672.0367634990973329
 21
-55.5539143279173118
 31
0.0
  0
LINE
  5
2D2
100
AcDbEntity
  8
0
 62
1
420
16711680
370
-1
 48
1.0
  6
BYLAYER
100
AcDbLine
 10
672.0367634990973329
 20
-55.5539143279173118
 30
0.0
 11
669.5814869522403114
 21
-55.5539143279173118
 31
0.0
  0
SPLINE
  5
2D3
100
AcDbEntity
  8
0
 62
1
420
16711680
370
-1
 48
1.0
  6
BYLAYER
100
AcDbSpline
 70
8
 71
3
 72
8
 73
4
 74
0
 40
0.0
 40
0.0
 40
0.0
 40
0.0
 40
1.0
 40
1.0
 40
1.0
 40
1.0
 10
671.8069916297390591
 20
-42.8376825865747932
 30
0.0
 10
671.8069916297390591
 20
-44.7021171836534066
 30
0.0
 10
672.1844739865418887
 20
-46.0802013239236601
 30
0.0
 10
672.9394387001476616
 20
-46.9719350073855608
 30
0.0
  0
SPLINE
  5
2D4
100
AcDbEntity
  8
0
 62
1
420
16711680
370
-1
 48
1.0
  6
BYLAYER
100
AcDbSpline
 70
8
 71
3
 72
8
 73
4
 74
0
 40
0.0
 40
0.0
 40
0.0
 40
0.0
 40
1.0
 40
1.0
 40
1.0
 40
1.0
 10
672.9394387001476616
 20
-46.9719350073855608
 30
0.0
 10
673.6944034137534345
 20
-47.8636686908474545
 30
0.0
 10
674.608020132392312
 20
-48.3095355325784084
 30
0.0
 10
675.6802888560642941
 20
-48.3095355325784084
 30
0.0
  0
SPLINE
  5
2D5
100
AcDbEntity
  8
0
 62
1
420
16711680
370
-1
 48
1.0
  6
BYLAYER
100
AcDbSpline
 70
8
 71
3
 72
8
 73
4
 74
0
 40
0.0
 40
0.0
 40
0.0
 40
0.0
 40
1.0
 40
1.0
 40
1.0
 40
1.0
 10
675.6802888560642941
 20
-48.3095355325784084
 30
0.0
 10
676.7722523113956186
 20
-48.3095355325784084
 30
0.0
 10
677.7066579134525455
 20
-47.8478034903441412
 30
0.0
 10
678.4835056622353022
 20
-46.9243394058756351
 30
0.0
  0
SPLINE
  5
2D6
100
AcDbEntity
  8
0
 62
1
420
16711680
370
-1
 48
1.0
  6
BYLAYER
100
AcDbSpline
 70
8
 71
3
 72
8
 73
4
 74
0
 40
0.0
 40
0.0
 40
0.0
 40
0.0
 40
1.0
 40
1.0
 40
1.0
 40
1.0
 10
678.4835056622353022
 20
-46.9243394058756351
 30
0.0
 10
679.260353411018059
 20
-46.0008753214071149
 30
0.0
 10
679.6487772854094374
 20
-44.5708189725915389
 30
0.0
 10
679.6487772854094374
 20
-42.634170359428893
 30
0.0
  0
SPLINE
  5
2D7
100
AcDbEntity
  8
0
 62
1
420
16711680
370
-1
 48
1.0
  6
BYLAYER
100
AcDbSpline
 70
8
 71
3
 72
8
 73
4
 74
0
 40
0.0
 40
0.0
 40
0.0
 40
0.0
 40
1.0
 40
1.0
 40
1.0
 40
1.0
 10
679.6487772854094374
 20
-42.634170359428893
 30
0.0
 10
679.6487772854094374
 20
-40.7872421904918596
 30
0.0
 10
679.2691066250888525
 20
-39.4042343673067847
 30
0.0
 10
678.5097653044476829
 20
-38.4851468898736613
 30
0.0
  0
SPLINE
  5
2D8
100
AcDbEntity
  8
0
 62
1
420
16711680
370
-1
 48
1.0
  6
BYLAYER
100
AcDbSpline
 70
8
 71
3
 72
8
 73
4
 74
0
 40
0.0
 40
0.0
 40
0.0
 40
0.0
 40
1.0
 40
1.0
 40
1.0
 40
1.0
 10
678.5097653044476829
 20
-38.4851468898736613
 30
0.0
 10
677.7504239838065132
 20
-37.5660594124405378
 30
0.0
 10
676.8433721757207877
 20
-37.1065156737239832
 30
0.0
 10
675.7886098801903927
 20
-37.1065156737239832
 30
0.0
  0
SPLINE
  5
2D9
100
AcDbEntity
  8
0
 62
1
420
16711680
370
-1
 48
1.0
  6
BYLAYER
100
AcDbSpline
 70
8
 71
3
 72
8
 73
4
 74
0
 40
0.0
 40
0.0
 40
0.0
 40
0.0
 40
1.0
 40
1.0
 40
1.0
 40
1.0
 10
675.7886098801903927
 20
-37.1065156737239832
 30
0.0
 10
674.7426007987307912
 20
-37.1065156737239832
 30
0.0
 10
673.8174954866240114
 20
-37.595601509929466
 30
0.0
 10
673.0132939438700532
 20
-38.5737731823404317
 30
0.0
  0
SPLINE
  5
2DA
100
AcDbEntity
  8
0
 62
1
420
16711680
370
-1
 48
1.0
  6
BYLAYER
100
AcDbSpline
 70
8
 71
3
 72
8
 73
4
 74
0
 40
0.0
 40
0.0
 40
0.0
 40
0.0
 40
1.0
 40
1.0
 40
1.0
 40
1.0
 10
673.0132939438700532
 20
-38.5737731823404317
 30
0.0
 10
672.2090924011160951
 20
-39.5519448547513903
 30
0.0
 10
671.8069916297390591
 20
-40.9732479894961799
 30
0.0
 10
671.8069916297390591
 20
-42.8376825865747932
 30
0.0
  0
ARC
  5
2DB
100
AcDbEntity
  8
0
 62
1
420
16711680
370
-1
 48
1.0
  6
BYLAYER
100
AcDbCircle
 10
688.4987588383434058
 20
-41.3985164463743232
 30
0.0
 40
9.128276069834822
100
AcDbArc
 50
292.1912016386507389
 51
311.6970897371521687
  0
ARC
  5
2DC
100
AcDbEntity
  8
0
 62
1
420
16711680
370
-1
 48
1.0
  6
BYLAYER
100
AcDbCircle
 10
689.2955581625387822
 20
-42.7359473662593672
 30
0.0
 40
7.5925253024703299
100
AcDbArc
 50
269.5568064539465354
 51
290.4353953968892483
  0
SPLINE
  5
2DD
100
AcDbEntity
  8
0
 62
1
420
16711680
370
-1
 48
1.0
  6
BYLAYER
100
AcDbSpline
 70
8
 71
3
 72
8
 73
4
 74
0
 40
0.0
 40
0.0
 40
0.0
 40
0.0
 40
1.0
 40
1.0
 40
1.0
 40
1.0
 10
689.2368291482027871
 20
-50.3282455276547225
 30
0.0
 10
687.6459324908364579
 20
-50.3282455276547225
 30
0.0
 10
686.4232179003228111
 20
-49.9392745773839195
 30
0.0
 10
685.5686853766617332
 20
-49.1613326768423136
 30
0.0
  0
ARC
  5
2DE
100
AcDbEntity
  8
0
 62
1
420
16711680
370
-1
 48
1.0
  6
BYLAYER
100
AcDbCircle
 10
688.1384518298492594
 20
-46.2902388282997208
 30
0.0
 40
3.853164869437431
100
AcDbArc
 50
178.3489746815401702
 51
228.1699341544669437
  0
ARC
  5
2DF
100
AcDbEntity
  8
0
 62
1
420
16711680
370
-1
 48
1.0
  6
BYLAYER
100
AcDbCircle
 10
688.2494671676680582
 20
-46.1345978574379529
 30
0.0
 40
3.9628318339948474
100
AcDbArc
 50
151.3734180639632143
 51
180.6452033562817974
  0
ARC
  5
2E0
100
AcDbEntity
  8
0
 62
1
420
16711680
370
-1
 48
1.0
  6
BYLAYER
100
AcDbCircle
 10
688.2996828868219836
 20
-46.1317848793568146
 30
0.0
 40
4.0056493681794754
100
AcDbArc
 50
124.3463717830843791
 51
151.7528623775864958
  0
ARC
  5
2E1
100
AcDbEntity
  8
0
 62
1
420
16711680
370
-1
 48
1.0
  6
BYLAYER
100
AcDbCircle
 10
689.3619920149817517
 20
-47.778942133553933
 30
0.0
 40
5.9651890645480705
100
AcDbArc
 50
105.123427281900419
 51
123.8446947529086373
  0
ARC
  5
2E2
100
AcDbEntity
  8
0
 62
1
420
16711680
370
-1
 48
1.0
  6
BYLAYER
100
AcDbCircle
 10
691.7504597292677317
 20
-58.6268175168857155
 30
0.0
 40
17.0685682047879546
100
AcDbArc
 50
95.9250639468674819
 51
103.3626526803602985
  0
SPLINE
  5
2E3
100
AcDbEntity
  8
0
 62
1
420
16711680
370
-1
 48
1.0
  6
BYLAYER
100
AcDbSpline
 70
8
 71
3
 72
8
 73
4
 74
0
 40
0.0
 40
0.0
 40
0.0
 40
0.0
 40
1.0
 40
1.0
 40
1.0
 40
1.0
 10
689.9885114065320977
 20
-41.6494337764648321
 30
0.0
 10
691.9711143935663813
 20
-41.4130969965534561
 30
0.0
 10
693.430712839870921
 20
-41.1318999945292774
 30
0.0
 10
694.3673067454456032
 20
-40.8058427703922888
 30
0.0
  0
ARC
  5
2E4
100
AcDbEntity
  8
0
 62
1
420
16711680
370
-1
 48
1.0
  6
BYLAYER
100
AcDbCircle
 10
660.5859182661708928
 20
-39.7946120841104403
 30
0.0
 40
33.7965204583038741
100
AcDbArc
 50
358.2853886021891299
 51
359.3763327419951565
  0
SPLINE
  5
2E5
100
AcDbEntity
  8
0
 62
1
420
16711680
370
-1
 48
1.0
  6
BYLAYER
100
AcDbSpline
 70
8
 71
3
 72
8
 73
4
 74
0
 40
0.0
 40
0.0
 40
0.0
 40
0.0
 40
1.0
 40
1.0
 40
1.0
 40
1.0
 10
694.3804365665517935
 20
-40.1624815361891052
 30
0.0
 10
694.3804365665517935
 20
-39.1624268286011628
 30
0.0
 10
694.1484763936757645
 20
-38.4577930959024314
 30
0.0
 10
693.6845560479238202
 20
-38.0485803380929326
 30
0.0
  0
SPLINE
  5
2E6
100
AcDbEntity
  8
0
 62
1
420
16711680
370
-1
 48
1.0
  6
BYLAYER
100
AcDbSpline
 70
8
 71
3
 72
8
 73
4
 74
0
 40
0.0
 40
0.0
 40
0.0
 40
0.0
 40
1.0
 40
1.0
 40
1.0
 40
1.0
 10
693.6845560479238202
 20
-38.0485803380929326
 30
0.0
 10
693.0565129383445537
 20
-37.4949395481153616
 30
0.0
 10
692.1242956398052684
 20
-37.2181191531265725
 30
0.0
 10
690.8879041523059641
 20
-37.2181191531265725
 30
0.0
  0
SPLINE
  5
2E7
100
AcDbEntity
  8
0
 62
1
420
16711680
370
-1
 48
1.0
  6
BYLAYER
100
AcDbSpline
 70
8
 71
3
 72
8
 73
4
 74
0
 40
0.0
 40
0.0
 40
0.0
 40
0.0
 40
1.0
 40
1.0
 40
1.0
 40
1.0
 10
690.8879041523059641
 20
-37.2181191531265725
 30
0.0
 10
689.7324798949614433
 20
-37.2181191531265725
 30
0.0
 10
688.8795885989386534
 20
-37.419990152634206
 30
0.0
 10
688.3292302642375944
 20
-37.823732151649466
 30
0.0
  0
SPLINE
  5
2E8
100
AcDbEntity
  8
0
 62
1
420
16711680
370
-1
 48
1.0
  6
BYLAYER
100
AcDbSpline
 70
8
 71
3
 72
8
 73
4
 74
0
 40
0.0
 40
0.0
 40
0.0
 40
0.0
 40
1.0
 40
1.0
 40
1.0
 40
1.0
 10
688.3292302642375944
 20
-37.823732151649466
 30
0.0
 10
687.7788719295366491
 20
-38.2274741506647331
 30
0.0
 10
687.3723945511242164
 20
-38.9435964768313738
 30
0.0
 10
687.1097981290005237
 20
-39.9720991301493882
 30
0.0
  0
LINE
  5
2E9
100
AcDbEntity
  8
0
 62
1
420
16711680
370
-1
 48
1.0
  6
BYLAYER
100
AcDbLine
 10
687.1097981290005237
 20
-39.9720991301493882
 30
0.0
 11
684.7070408665681498
 21
-39.6438536024947012
 31
0.0
  0
ARC
  5
2EA
100
AcDbEntity
  8
0
 62
1
420
16711680
370
-1
 48
1.0
  6
BYLAYER
100
AcDbCircle
 10
690.5730010224995112
 20
-40.708324614708765
 30
0.0
 40
5.9617604016614241
100
AcDbArc
 50
143.4236719204305928
 51
169.7146999801184108
  0
ARC
  5
2EB
100
AcDbEntity
  8
0
 62
1
420
16711680
370
-1
 48
1.0
  6
BYLAYER
100
AcDbCircle
 10
689.4047055085600277
 20
-40.1901749506899932
 30
0.0
 40
4.7230940393134908
100
AcDbArc
 50
107.8745176427943449
 51
140.0241277121691326
  0
ARC
  5
2EC
100
AcDbEntity
  8
0
 62
1
420
16711680
370
-1
 48
1.0
  6
BYLAYER
100
AcDbCircle
 10
691.0648584715183915
 20
-44.8514504254146544
 30
0.0
 40
9.6700836724489978
100
AcDbArc
 50
88.9479422923680545
 51
108.7592707012276065
  0
SPLINE
  5
2ED
100
AcDbEntity
  8
0
 62
1
420
16711680
370
-1
 48
1.0
  6
BYLAYER
100
AcDbSpline
 70
8
 71
3
 72
8
 73
4
 74
0
 40
0.0
 40
0.0
 40
0.0
 40
0.0
 40
1.0
 40
1.0
 40
1.0
 40
1.0
 10
691.2424093221729891
 20
-35.1829968816675205
 30
0.0
 10
692.4809891131899349
 20
-35.1829968816675205
 30
0.0
 10
693.4865145795721446
 20
-35.3285190655944348
 30
0.0
 10
694.2589857213195046
 20
-35.6195634334482563
 30
0.0
  0
SPLINE
  5
2EE
100
AcDbEntity
  8
0
 62
1
420
16711680
370
-1
 48
1.0
  6
BYLAYER
100
AcDbSpline
 70
8
 71
3
 72
8
 73
4
 74
0
 40
0.0
 40
0.0
 40
0.0
 40
0.0
 40
1.0
 40
1.0
 40
1.0
 40
1.0
 10
694.2589857213195046
 20
-35.6195634334482563
 30
0.0
 10
695.0314568630668646
 20
-35.9106078013020777
 30
0.0
 10
695.5998687017888642
 20
-36.2766015646370477
 30
0.0
 10
695.9642212374856172
 20
-36.7175447234531802
 30
0.0
  0
ARC
  5
2EF
100
AcDbEntity
  8
0
 62
1
420
16711680
370
-1
 48
1.0
  6
BYLAYER
100
AcDbCircle
 10
692.9523103807640609
 20
-39.1023034646416932
 30
0.0
 40
3.8417029117973627
100
AcDbArc
 50
10.6859120588722121
 51
38.3713361684514851
  0
ARC
  5
2F0
100
AcDbEntity
  8
0
 62
1
420
16711680
370
-1
 48
1.0
  6
BYLAYER
100
AcDbCircle
 10
682.8829104618666861
 20
-40.2680442947276518
 30
0.0
 40
13.9712879989959582
100
AcDbArc
 50
358.4135208759902866
 51
7.7253643766744347
  0
LINE
  5
2F1
100
AcDbEntity
  8
0
 62
1
420
16711680
370
-1
 48
1.0
  6
BYLAYER
100
AcDbLine
 10
696.8488429345150053
 20
-40.6548498276711356
 30
0.0
 11
696.8488429345150053
 21
-43.9274577383883482
 31
0.0
  0
SPLINE
  5
2F2
100
AcDbEntity
  8
0
 62
1
420
16711680
370
-1
 48
1.0
  6
BYLAYER
100
AcDbSpline
 70
8
 71
3
 72
8
 73
4
 74
0
 40
0.0
 40
0.0
 40
0.0
 40
0.0
 40
1.0
 40
1.0
 40
1.0
 40
1.0
 10
696.8488429345150053
 20
-43.9274577383883482
 30
0.0
 10
696.8488429345150053
 20
-46.2120466108649595
 30
0.0
 10
696.9013622189397665
 20
-47.6563269325455821
 30
0.0
 10
697.0064007877892891
 20
-48.2602987034302018
 30
0.0
  0
ARC
  5
2F3
100
AcDbEntity
  8
0
 62
1
420
16711680
370
-1
 48
1.0
  6
BYLAYER
100
AcDbCircle
 10
702.432348230109028
 20
-47.3058516646745346
 30
0.0
 40
5.5092535607471502
100
AcDbArc
 50
189.9765061515047648
 51
209.2763462441931779
  0
LINE
  5
2F4
100
AcDbEntity
  8
0
 62
1
420
16711680
370
-1
 48
1.0
  6
BYLAYER
100
AcDbLine
 10
697.6267848350565828
 20
-50.0000000000000355
 30
0.0
 11
695.0631872640735764
 21
-50.0000000000000355
 31
0.0
  0
ARC
  5
2F5
100
AcDbEntity
  8
0
 62
1
420
16711680
370
-1
 48
1.0
  6
BYLAYER
100
AcDbCircle
 10
699.8153992575577149
 20
-47.728937935213267
 30
0.0
 40
5.2669955129207802
100
AcDbArc
 50
185.2878835005749636
 51
205.5429387176693865
  0
SPLINE
  5
2F6
100
AcDbEntity
  8
0
 62
1
420
16711680
370
-1
 48
1.0
  6
BYLAYER
100
AcDbSpline
 70
8
 71
3
 72
8
 73
4
 74
0
 40
0.0
 40
0.0
 40
0.0
 40
0.0
 40
1.0
 40
1.0
 40
1.0
 40
1.0
 10
694.3673067454456032
 20
-42.7293615624487444
 30
0.0
 10
693.4766672137425303
 20
-43.0926199463865984
 30
0.0
 10
692.1396137644291002
 20
-43.401170742382007
 30
0.0
 10
690.356146397505313
 20
-43.655013950434963
 30
0.0
  0
SPLINE
  5
2F7
100
AcDbEntity
  8
0
 62
1
420
16711680
370
-1
 48
1.0
  6
BYLAYER
100
AcDbSpline
 70
8
 71
3
 72
8
 73
4
 74
0
 40
0.0
 40
0.0
 40
0.0
 40
0.0
 40
1.0
 40
1.0
 40
1.0
 40
1.0
 10
690.356146397505313
 20
-43.655013950434963
 30
0.0
 10
689.3473384758466409
 20
-43.8016302861207194
 30
0.0
 10
688.6334044531976133
 20
-43.9657530499480629
 30
0.0
 10
688.2143443295585712
 20
-44.1473822419169863
 30
0.0
  0
ARC
  5
2F8
100
AcDbEntity
  8
0
 62
1
420
16711680
370
-1
 48
1.0
  6
BYLAYER
100
AcDbCircle
 10
689.0203185965276589
 20
-46.1124155538064997
 30
0.0
 40
2.1238998177530157
100
AcDbArc
 50
112.3013820343302314
 51
146.6571519617946251
  0
ARC
  5
2F9
100
AcDbEntity
  8
0
 62
1
420
16711680
370
-1
 48
1.0
  6
BYLAYER
100
AcDbCircle
 10
689.006767388094886
 20
-46.0905239619241485
 30
0.0
 40
2.1005744904570745
100
AcDbArc
 50
146.9528214579424628
 51
180.5391647724148925
  0
ARC
  5
2FA
100
AcDbEntity
  8
0
 62
1
420
16711680
370
-1
 48
1.0
  6
BYLAYER
100
AcDbCircle
 10
688.999962943307878
 20
-46.1492645248645843
 30
0.0
 40
2.0940397629305352
100
AcDbArc
 50
178.9335559561590401
 51
229.850603919109119
  0
SPLINE
  5
2FB
100
AcDbEntity
  8
0
 62
1
420
16711680
370
-1
 48
1.0
  6
BYLAYER
100
AcDbSpline
 70
8
 71
3
 72
8
 73
4
 74
0
 40
0.0
 40
0.0
 40
0.0
 40
0.0
 40
1.0
 40
1.0
 40
1.0
 40
1.0
 10
687.6497620219925011
 20
-47.7498769079271668
 30
0.0
 10
688.1454127687510436
 20
-48.1864434597078954
 30
0.0
 10
688.8702883089883926
 20
-48.4047267355982598
 30
0.0
 10
689.8243886427047755
 20
-48.4047267355982598
 30
0.0
  0
ARC
  5
2FC
100
AcDbEntity
  8
0
 62
1
420
16711680
370
-1
 48
1.0
  6
BYLAYER
100
AcDbCircle
 10
689.9162870615411975
 20
-43.3449640542837713
 30
0.0
 40
5.0605971693672327
100
AcDbArc
 50
268.9594743850178702
 51
298.7270066155707013
  0
ARC
  5
2FD
100
AcDbEntity
  8
0
 62
1
420
16711680
370
-1
 48
1.0
  6
BYLAYER
100
AcDbCircle
 10
690.5262922508434258
 20
-44.4132066809137669
 30
0.0
 40
3.8307034288691311
100
AcDbArc
 50
298.4055978427271043
 51
334.1404621973889562
  0
SPLINE
  5
2FE
100
AcDbEntity
  8
0
 62
1
420
16711680
370
-1
 48
1.0
  6
BYLAYER
100
AcDbSpline
 70
8
 71
3
 72
8
 73
4
 74
0
 40
0.0
 40
0.0
 40
0.0
 40
0.0
 40
1.0
 40
1.0
 40
1.0
 40
1.0
 10
693.9734121122600072
 20
-46.0840308550796323
 30
0.0
 10
694.2360085343837
 20
-45.5303900651020612
 30
0.0
 10
694.3673067454456032
 20
-44.7119645494830493
 30
0.0
 10
694.3673067454456032
 20
-43.6287543082225824
 30
0.0
  0
LINE
  5
2FF
100
AcDbEntity
  8
0
 62
1
420
16711680
370
-1
 48
1.0
  6
BYLAYER
100
AcDbLine
 10
694.3673067454456032
 20
-43.6287543082225824
 30
0.0
 11
694.3673067454456032
 21
-42.7293615624487444
 31
0.0
  0
LINE
  5
300
100
AcDbEntity
  8
0
 62
1
420
16711680
370
-1
 48
1.0
  6
BYLAYER
100
AcDbLine
 10
720.4726735598227378
 20
-34.897423272607945
 30
0.0
 11
718.0305268340719067
 21
-35.087805678647662
 31
0.0
  0
SPLINE
  5
301
100
AcDbEntity
  8
0
 62
1
420
16711680
370
-1
 48
1.0
  6
BYLAYER
100
AcDbSpline
 70
8
 71
3
 72
8
 73
4
 74
0
 40
0.0
 40
0.0
 40
0.0
 40
0.0
 40
1.0
 40
1.0
 40
1.0
 40
1.0
 10
718.0305268340719067
 20
-35.087805678647662
 30
0.0
 10
717.8138847858198233
 20
-34.1249521308605921
 30
0.0
 10
717.5053339898244076
 20
-33.4246950051972576
 30
0.0
 10
717.1048744460856597
 20
-32.9870343016576726
 30
0.0
  0
ARC
  5
302
100
AcDbEntity
  8
0
 62
1
420
16711680
370
-1
 48
1.0
  6
BYLAYER
100
AcDbCircle
 10
714.7102567855890811
 20
-35.1896557746816612
 30
0.0
 40
3.2535726660685262
100
AcDbArc
 50
42.6085250439169059
 51
91.0682716841799902
  0
ARC
  5
303
100
AcDbEntity
  8
0
 62
1
420
16711680
370
-1
 48
1.0
  6
BYLAYER
100
AcDbCircle
 10
714.5872495867132557
 20
-35.305490043983454
 30
0.0
 40
3.3694183323071893
100
AcDbArc
 50
88.9397282534646223
 51
126.3906441496913828
  0
ARC
  5
304
100
AcDbEntity
  8
0
 62
1
420
16711680
370
-1
 48
1.0
  6
BYLAYER
100
AcDbCircle
 10
715.993092429188664
 20
-37.0277270458858396
 30
0.0
 40
5.5909524058351785
100
AcDbArc
 50
127.517056178702191
 51
159.3924202462013113
  0
SPLINE
  5
305
100
AcDbEntity
  8
0
 62
1
420
16711680
370
-1
 48
1.0
  6
BYLAYER
100
AcDbSpline
 70
8
 71
3
 72
8
 73
4
 74
0
 40
0.0
 40
0.0
 40
0.0
 40
0.0
 40
1.0
 40
1.0
 40
1.0
 40
1.0
 10
710.7598883965206369
 20
-35.0599048087970147
 30
0.0
 10
710.313474478910166
 20
-36.1420208982986324
 30
0.0
 10
710.0815143060342507
 20
-37.6842278023962294
 30
0.0
 10
710.0640078778926636
 20
-39.6865255210898127
 30
0.0
  0
ARC
  5
306
100
AcDbEntity
  8
0
 62
1
420
16711680
370
-1
 48
1.0
  6
BYLAYER
100
AcDbCircle
 10
714.8735635187225625
 20
-42.7091281606723356
 30
0.0
 40
5.6804887271299265
100
AcDbArc
 50
117.6922844884319375
 51
147.8523727394772891
  0
ARC
  5
307
100
AcDbEntity
  8
0
 62
1
420
16711680
370
-1
 48
1.0
  6
BYLAYER
100
AcDbCircle
 10
714.9205172963532959
 20
-42.8637740216220493
 30
0.0
 40
5.8393199287876039
100
AcDbArc
 50
89.9850425798082938
 51
117.3950566551217918
  0
ARC
  5
308
100
AcDbEntity
  8
0
 62
1
420
16711680
370
-1
 48
1.0
  6
BYLAYER
100
AcDbCircle
 10
714.9966753758150162
 20
-42.5870296570508629
 30
0.0
 40
5.5630760269349802
100
AcDbArc
 50
42.4383251906735595
 51
90.7686976834497727
  0
SPLINE
  5
309
100
AcDbEntity
  8
0
 62
1
420
16711680
370
-1
 48
1.0
  6
BYLAYER
100
AcDbSpline
 70
8
 71
3
 72
8
 73
4
 74
0
 40
0.0
 40
0.0
 40
0.0
 40
0.0
 40
1.0
 40
1.0
 40
1.0
 40
1.0
 10
719.1022484818644216
 20
-38.8330871491876266
 30
0.0
 10
720.2522019804147249
 20
-40.0388423874391748
 30
0.0
 10
720.8271787296897628
 20
-41.5969144920400851
 30
0.0
 10
720.8271787296897628
 20
-43.5073034629903503
 30
0.0
  0
ARC
  5
30A
100
AcDbEntity
  8
0
 62
1
420
16711680
370
-1
 48
1.0
  6
BYLAYER
100
AcDbCircle
 10
713.1354166642718155
 20
-43.5669319590839734
 30
0.0
 40
7.6919931895802289
100
AcDbArc
 50
333.4527387162818286
 51
0.4441625596437269
  0
ARC
  5
30B
100
AcDbEntity
  8
0
 62
1
420
16711680
370
-1
 48
1.0
  6
BYLAYER
100
AcDbCircle
 10
714.6879587128743196
 20
-44.4486375018252318
 30
0.0
 40
5.9098373374845528
100
AcDbArc
 50
301.6154104475861004
 51
334.3724161623318309
  0
ARC
  5
30C
100
AcDbEntity
  8
0
 62
1
420
16711680
370
-1
 48
1.0
  6
BYLAYER
100
AcDbCircle
 10
714.6650215643234105
 20
-44.2538937510506187
 30
0.0
 40
6.0882621113788806
100
AcDbArc
 50
269.0825427100442084
 51
300.8384765590177494
  0
SPLINE
  5
30D
100
AcDbEntity
  8
0
 62
1
420
16711680
370
-1
 48
1.0
  6
BYLAYER
100
AcDbSpline
 70
8
 71
3
 72
8
 73
4
 74
0
 40
0.0
 40
0.0
 40
0.0
 40
0.0
 40
1.0
 40
1.0
 40
1.0
 40
1.0
 10
714.5675365173149203
 20
-50.3413753487609057
 30
0.0
 10
712.5192844247496851
 20
-50.3413753487609057
 30
0.0
 10
710.8496088407462139
 20
-49.5885989386728312
 30
0.0
 10
709.5585097653043931
 20
-48.083046118496668
 30
0.0
  0
SPLINE
  5
30E
100
AcDbEntity
  8
0
 62
1
420
16711680
370
-1
 48
1.0
  6
BYLAYER
100
AcDbSpline
 70
8
 71
3
 72
8
 73
4
 74
0
 40
0.0
 40
0.0
 40
0.0
 40
0.0
 40
1.0
 40
1.0
 40
1.0
 40
1.0
 10
709.5585097653043931
 20
-48.083046118496668
 30
0.0
 10
708.267410689862686
 20
-46.5774932983205119
 30
0.0
 10
707.6218611521418325
 20
-44.0970512610099377
 30
0.0
 10
707.6218611521418325
 20
-40.6417200065649453
 30
0.0
  0
SPLINE
  5
30F
100
AcDbEntity
  8
0
 62
1
420
16711680
370
-1
 48
1.0
  6
BYLAYER
100
AcDbSpline
 70
8
 71
3
 72
8
 73
4
 74
0
 40
0.0
 40
0.0
 40
0.0
 40
0.0
 40
1.0
 40
1.0
 40
1.0
 40
1.0
 10
707.6218611521418325
 20
-40.6417200065649453
 30
0.0
 10
707.6218611521418325
 20
-36.7749876907927487
 30
0.0
 10
708.3363422506702136
 20
-33.9641118223097891
 30
0.0
 10
709.7653044477268622
 20
-32.2090924011160666
 30
0.0
  0
SPLINE
  5
310
100
AcDbEntity
  8
0
 62
1
420
16711680
370
-1
 48
1.0
  6
BYLAYER
100
AcDbSpline
 70
8
 71
3
 72
8
 73
4
 74
0
 40
0.0
 40
0.0
 40
0.0
 40
0.0
 40
1.0
 40
1.0
 40
1.0
 40
1.0
 10
709.7653044477268622
 20
-32.2090924011160666
 30
0.0
 10
711.0104491492970737
 20
-30.6816565457629338
 30
0.0
 10
712.687783795612404
 20
-29.9179386180863638
 30
0.0
 10
714.797308386673194
 20
-29.9179386180863638
 30
0.0
  0
SPLINE
  5
311
100
AcDbEntity
  8
0
 62
1
420
16711680
370
-1
 48
1.0
  6
BYLAYER
100
AcDbSpline
 70
8
 71
3
 72
8
 73
4
 74
0
 40
0.0
 40
0.0
 40
0.0
 40
0.0
 40
1.0
 40
1.0
 40
1.0
 40
1.0
 10
714.797308386673194
 20
-29.9179386180863638
 30
0.0
 10
716.3706986158980499
 20
-29.9179386180863638
 30
0.0
 10
717.660156463701469
 20
-30.3588817769024928
 30
0.0
 10
718.6656819300836787
 20
-31.2407680945347472
 30
0.0
  0
SPLINE
  5
312
100
AcDbEntity
  8
0
 62
1
420
16711680
370
-1
 48
1.0
  6
BYLAYER
100
AcDbSpline
 70
8
 71
3
 72
8
 73
4
 74
0
 40
0.0
 40
0.0
 40
0.0
 40
0.0
 40
1.0
 40
1.0
 40
1.0
 40
1.0
 10
718.6656819300836787
 20
-31.2407680945347472
 30
0.0
 10
719.6712073964658885
 20
-32.1226544121670088
 30
0.0
 10
720.2735379397122415
 20
-33.3415394715247402
 30
0.0
 10
720.4726735598227378
 20
-34.897423272607945
 30
0.0
  0
ARC
  5
313
100
AcDbEntity
  8
0
 62
1
420
16711680
370
-1
 48
1.0
  6
BYLAYER
100
AcDbCircle
 10
716.1325630966271092
 20
-43.5289426348429132
 30
0.0
 40
5.6877967719572311
100
AcDbArc
 50
179.9142813842379667
 51
205.1679438609548924
  0
ARC
  5
314
100
AcDbEntity
  8
0
 62
1
420
16711680
370
-1
 48
1.0
  6
BYLAYER
100
AcDbCircle
 10
714.6695272274060926
 20
-44.3309005043518951
 30
0.0
 40
4.0239377543496797
100
AcDbArc
 50
203.692157073528449
 51
237.2558432527111734
  0
ARC
  5
315
100
AcDbEntity
  8
0
 62
1
420
16711680
370
-1
 48
1.0
  6
BYLAYER
100
AcDbCircle
 10
714.5438792846674687
 20
-44.5562030313586988
 30
0.0
 40
3.7665103190861227
100
AcDbArc
 50
237.009686007683996
 51
269.7107492641807767
  0
ARC
  5
316
100
AcDbEntity
  8
0
 62
1
420
16711680
370
-1
 48
1.0
  6
BYLAYER
100
AcDbCircle
 10
714.5302099498907182
 20
-44.8562344308607237
 30
0.0
 40
3.466435044175459
100
AcDbArc
 50
269.9116480823735742
 51
320.3720445785133393
  0
SPLINE
  5
317
100
AcDbEntity
  8
0
 62
1
420
16711680
370
-1
 48
1.0
  6
BYLAYER
100
AcDbSpline
 70
8
 71
3
 72
8
 73
4
 74
0
 40
0.0
 40
0.0
 40
0.0
 40
0.0
 40
1.0
 40
1.0
 40
1.0
 40
1.0
 10
717.2000656491054542
 20
-47.0671262104054193
 30
0.0
 10
717.9462771486405472
 20
-46.2301001148859712
 30
0.0
 10
718.3193828984079801
 20
-45.0927293615624833
 30
0.0
 10
718.3193828984079801
 20
-43.655013950434963
 30
0.0
  0
SPLINE
  5
318
100
AcDbEntity
  8
0
 62
1
420
16711680
370
-1
 48
1.0
  6
BYLAYER
100
AcDbSpline
 70
8
 71
3
 72
8
 73
4
 74
0
 40
0.0
 40
0.0
 40
0.0
 40
0.0
 40
1.0
 40
1.0
 40
1.0
 40
1.0
 10
718.3193828984079801
 20
-43.655013950434963
 30
0.0
 10
718.3193828984079801
 20
-42.2741944307675865
 30
0.0
 10
717.950653755675944
 20
-41.1855134307128736
 30
0.0
 10
717.2131954702117582
 20
-40.3889709502708385
 30
0.0
  0
ARC
  5
319
100
AcDbEntity
  8
0
 62
1
420
16711680
370
-1
 48
1.0
  6
BYLAYER
100
AcDbCircle
 10
714.5192005968801823
 20
-42.8253396201379886
 30
0.0
 40
3.6322858743562332
100
AcDbArc
 50
42.1252513541864033
 51
91.4123476147351539
  0
ARC
  5
31A
100
AcDbEntity
  8
0
 62
1
420
16711680
370
-1
 48
1.0
  6
BYLAYER
100
AcDbCircle
 10
714.3671880842017572
 20
-42.9824850152103153
 30
0.0
 40
3.7888430721423236
100
AcDbArc
 50
89.0550395273229611
 51
136.8026447865199771
  0
SPLINE
  5
31B
100
AcDbEntity
  8
0
 62
1
420
16711680
370
-1
 48
1.0
  6
BYLAYER
100
AcDbSpline
 70
8
 71
3
 72
8
 73
4
 74
0
 40
0.0
 40
0.0
 40
0.0
 40
0.0
 40
1.0
 40
1.0
 40
1.0
 40
1.0
 10
711.605120630231454
 20
-40.3889709502708385
 30
0.0
 10
710.8315553367251596
 20
-41.1855134307128736
 30
0.0
 10
710.4447726899720692
 20
-42.2293342086547767
 30
0.0
 10
710.4447726899720692
 20
-43.5204332840965407
 30
0.0
  0
LINE
  5
31C
100
AcDbEntity
  8
0
 62
1
420
16711680
370
-1
 48
1.0
  6
BYLAYER
100
AcDbLine
 10
731.7774495322501025
 20
-35.5112424093222074
 30
0.0
 11
735.5982274741506899
 21
-35.5112424093222074
 31
0.0
  0
LINE
  5
31D
100
AcDbEntity
  8
0
 62
1
420
16711680
370
-1
 48
1.0
  6
BYLAYER
100
AcDbLine
 10
735.5982274741506899
 20
-35.5112424093222074
 30
0.0
 11
739.4025931396683973
 21
-47.1081569013622499
 31
0.0
  0
LINE
  5
31E
100
AcDbEntity
  8
0
 62
1
420
16711680
370
-1
 48
1.0
  6
BYLAYER
100
AcDbLine
 10
739.4025931396683973
 20
-47.1081569013622499
 30
0.0
 11
743.6336779911373469
 21
-35.5112424093222074
 31
0.0
  0
LINE
  5
31F
100
AcDbEntity
  8
0
 62
1
420
16711680
370
-1
 48
1.0
  6
BYLAYER
100
AcDbLine
 10
743.6336779911373469
 20
-35.5112424093222074
 30
0.0
 11
747.1655998687017473
 21
-35.5112424093222074
 31
0.0
  0
LINE
  5
320
100
AcDbEntity
  8
0
 62
1
420
16711680
370
-1
 48
1.0
  6
BYLAYER
100
AcDbLine
 10
747.1655998687017473
 20
-35.5112424093222074
 30
0.0
 11
747.1655998687017473
 21
-50.0000000000000355
 31
0.0
  0
LINE
  5
321
100
AcDbEntity
  8
0
 62
1
420
16711680
370
-1
 48
1.0
  6
BYLAYER
100
AcDbLine
 10
747.1655998687017473
 20
-50.0000000000000355
 30
0.0
 11
744.7103233218447258
 21
-50.0000000000000355
 31
0.0
  0
LINE
  5
322
100
AcDbEntity
  8
0
 62
1
420
16711680
370
-1
 48
1.0
  6
BYLAYER
100
AcDbLine
 10
744.7103233218447258
 20
-50.0000000000000355
 30
0.0
 11
744.7103233218447258
 21
-38.334153947152501
 31
0.0
  0
LINE
  5
323
100
AcDbEntity
  8
0
 62
1
420
16711680
370
-1
 48
1.0
  6
BYLAYER
100
AcDbLine
 10
744.7103233218447258
 20
-38.334153947152501
 30
0.0
 11
740.4267191859510149
 21
-50.0000000000000355
 31
0.0
  0
LINE
  5
324
100
AcDbEntity
  8
0
 62
1
420
16711680
370
-1
 48
1.0
  6
BYLAYER
100
AcDbLine
 10
740.4267191859510149
 20
-50.0000000000000355
 30
0.0
 11
738.2307566059412238
 21
-50.0000000000000355
 31
0.0
  0
LINE
  5
325
100
AcDbEntity
  8
0
 62
1
420
16711680
370
-1
 48
1.0
  6
BYLAYER
100
AcDbLine
 10
738.2307566059412238
 20
-50.0000000000000355
 30
0.0
 11
734.1769243394059004
 21
-37.7761365501395403
 31
0.0
  0
LINE
  5
326
100
AcDbEntity
  8
0
 62
1
420
16711680
370
-1
 48
1.0
  6
BYLAYER
100
AcDbLine
 10
734.1769243394059004
 20
-37.7761365501395403
 30
0.0
 11
734.1769243394059004
 21
-50.0000000000000355
 31
0.0
  0
LINE
  5
327
100
AcDbEntity
  8
0
 62
1
420
16711680
370
-1
 48
1.0
  6
BYLAYER
100
AcDbLine
 10
734.1769243394059004
 20
-50.0000000000000355
 30
0.0
 11
731.7774495322501025
 21
-50.0000000000000355
 31
0.0
  0
LINE
  5
328
100
AcDbEntity
  8
0
 62
1
420
16711680
370
-1
 48
1.0
  6
BYLAYER
100
AcDbLine
 10
731.7774495322501025
 20
-50.0000000000000355
 30
0.0
 11
731.7774495322501025
 21
-35.5112424093222074
 31
0.0
  0
LINE
  5
329
100
AcDbEntity
  8
0
 62
1
420
16711680
370
-1
 48
1.0
  6
BYLAYER
100
AcDbLine
 10
750.9863778106023346
 20
-35.5112424093222074
 30
0.0
 11
754.807155752502922
 21
-35.5112424093222074
 31
0.0
  0
LINE
  5
32A
100
AcDbEntity
  8
0
 62
1
420
16711680
370
-1
 48
1.0
  6
BYLAYER
100
AcDbLine
 10
754.807155752502922
 20
-35.5112424093222074
 30
0.0
 11
758.6115214180206294
 21
-47.1081569013622499
 31
0.0
  0
LINE
  5
32B
100
AcDbEntity
  8
0
 62
1
420
16711680
370
-1
 48
1.0
  6
BYLAYER
100
AcDbLine
 10
758.6115214180206294
 20
-47.1081569013622499
 30
0.0
 11
762.8426062694895791
 21
-35.5112424093222074
 31
0.0
  0
LINE
  5
32C
100
AcDbEntity
  8
0
 62
1
420
16711680
370
-1
 48
1.0
  6
BYLAYER
100
AcDbLine
 10
762.8426062694895791
 20
-35.5112424093222074
 30
0.0
 11
766.3745281470539794
 21
-35.5112424093222074
 31
0.0
  0
LINE
  5
32D
100
AcDbEntity
  8
0
 62
1
420
16711680
370
-1
 48
1.0
  6
BYLAYER
100
AcDbLine
 10
766.3745281470539794
 20
-35.5112424093222074
 30
0.0
 11
766.3745281470539794
 21
-50.0000000000000355
 31
0.0
  0
LINE
  5
32E
100
AcDbEntity
  8
0
 62
1
420
16711680
370
-1
 48
1.0
  6
BYLAYER
100
AcDbLine
 10
766.3745281470539794
 20
-50.0000000000000355
 30
0.0
 11
763.919251600196958
 21
-50.0000000000000355
 31
0.0
  0
LINE
  5
32F
100
AcDbEntity
  8
0
 62
1
420
16711680
370
-1
 48
1.0
  6
BYLAYER
100
AcDbLine
 10
763.919251600196958
 20
-50.0000000000000355
 30
0.0
 11
763.919251600196958
 21
-38.334153947152501
 31
0.0
  0
LINE
  5
330
100
AcDbEntity
  8
0
 62
1
420
16711680
370
-1
 48
1.0
  6
BYLAYER
100
AcDbLine
 10
763.919251600196958
 20
-38.334153947152501
 30
0.0
 11
759.635647464303247
 21
-50.0000000000000355
 31
0.0
  0
LINE
  5
331
100
AcDbEntity
  8
0
 62
1
420
16711680
370
-1
 48
1.0
  6
BYLAYER
100
AcDbLine
 10
759.635647464303247
 20
-50.0000000000000355
 30
0.0
 11
757.439684884293456
 21
-50.0000000000000355
 31
0.0
  0
LINE
  5
332
100
AcDbEntity
  8
0
 62
1
420
16711680
370
-1
 48
1.0
  6
BYLAYER
100
AcDbLine
 10
757.439684884293456
 20
-50.0000000000000355
 30
0.0
 11
753.3858526177580188
 21
-37.7761365501395403
 31
0.0
  0
LINE
  5
333
100
AcDbEntity
  8
0
 62
1
420
16711680
370
-1
 48
1.0
  6
BYLAYER
100
AcDbLine
 10
753.3858526177580188
 20
-37.7761365501395403
 30
0.0
 11
753.3858526177580188
 21
-50.0000000000000355
 31
0.0
  0
LINE
  5
334
100
AcDbEntity
  8
0
 62
1
420
16711680
370
-1
 48
1.0
  6
BYLAYER
100
AcDbLine
 10
753.3858526177580188
 20
-50.0000000000000355
 30
0.0
 11
750.9863778106023346
 21
-50.0000000000000355
 31
0.0
  0
LINE
  5
335
100
AcDbEntity
  8
0
 62
1
420
16711680
370
-1
 48
1.0
  6
BYLAYER
100
AcDbLine
 10
750.9863778106023346
 20
-50.0000000000000355
 30
0.0
 11
750.9863778106023346
 21
-35.5112424093222074
 31
0.0
  0
LINE
  5
336
100
AcDbEntity
  8
0
 62
256
370
-1
 48
1.0
  6
BYLAYER
100
AcDbLine
 10
490.0
 20
-117.0
 30
0.0
 11
490.0
 21
-123.0
 31
0.0
  0
LINE
  5
337
100
AcDbEntity
  8
0
 62
256
370
-1
 48
1.0
  6
BYLAYER
100
AcDbLine
 10
490.0
 20
-153.0
 30
0.0
 11
910.0
 21
-153.0
 31
0.0
  0
LINE
  5
338
100
AcDbEntity
  8
0
 62
256
370
-1
 48
1.0
  6
BYLAYER
100
AcDbLine
 10
910.0
 20
-153.0
 30
0.0
 11
910.0
 21
-147.0
 31
0.0
  0
LINE
  5
339
100
AcDbEntity
  8
0
 62
256
370
-1
 48
1.0
  6
BYLAYER
100
AcDbLine
 10
910.0
 20
-147.0
 30
0.0
 11
490.0
 21
-147.0
 31
0.0
  0
LINE
  5
33A
100
AcDbEntity
  8
0
 62
256
370
-1
 48
1.0
  6
BYLAYER
100
AcDbLine
 10
490.0
 20
-147.0
 30
0.0
 11
490.0
 21
-153.0
 31
0.0
  0
LINE
  5
33B
100
AcDbEntity
  8
0
 62
256
370
-1
 48
1.0
  6
BYLAYER
100
AcDbLine
 10
505.0
 20
-183.0
 30
0.0
 11
895.0
 21
-183.0
 31
0.0
  0
LINE
  5
33C
100
AcDbEntity
  8
0
 62
256
370
-1
 48
1.0
  6
BYLAYER
100
AcDbLine
 10
895.0
 20
-183.0
 30
0.0
 11
895.0
 21
-177.0
 31
0.0
  0
LINE
  5
33D
100
AcDbEntity
  8
0
 62
256
370
-1
 48
1.0
  6
BYLAYER
100
AcDbLine
 10
895.0
 20
-177.0
 30
0.0
 11
505.0
 21
-177.0
 31
0.0
  0
LINE
  5
33E
100
AcDbEntity
  8
0
 62
256
370
-1
 48
1.0
  6
BYLAYER
100
AcDbLine
 10
505.0
 20
-177.0
 30
0.0
 11
505.0
 21
-183.0
 31
0.0
  0
LINE
  5
33F
100
AcDbEntity
  8
0
 62
256
370
-1
 48
1.0
  6
BYLAYER
100
AcDbLine
 10
594.0
 20
-300.0
 30
0.0
 11
594.0
 21
-324.0
 31
0.0
  0
LINE
  5
340
100
AcDbEntity
  8
0
 62
256
370
-1
 48
1.0
  6
BYLAYER
100
AcDbLine
 10
594.0
 20
-324.0
 30
0.0
 11
806.0
 21
-324.0
 31
0.0
  0
LINE
  5
341
100
AcDbEntity
  8
0
 62
256
370
-1
 48
1.0
  6
BYLAYER
100
AcDbLine
 10
594.0
 20
-240.0
 30
0.0
 11
806.0
 21
-240.0
 31
0.0
  0
LINE
  5
342
100
AcDbEntity
  8
0
 62
256
370
-1
 48
1.0
  6
BYLAYER
100
AcDbLine
 10
806.0
 20
-300.0
 30
0.0
 11
806.0
 21
-324.0
 31
0.0
  0
LINE
  5
343
100
AcDbEntity
  8
0
 62
256
370
-1
 48
1.0
  6
BYLAYER
100
AcDbLine
 10
919.0
 20
-93.0
 30
0.0
 11
919.0
 21
-117.0
 31
0.0
  0
LINE
  5
344
100
AcDbEntity
  8
0
 62
256
370
-1
 48
1.0
  6
BYLAYER
100
AcDbLine
 10
919.0
 20
-117.0
 30
0.0
 11
925.0
 21
-117.0
 31
0.0
  0
LINE
  5
345
100
AcDbEntity
  8
0
 62
256
370
-1
 48
1.0
  6
BYLAYER
100
AcDbLine
 10
925.0
 20
-117.0
 30
0.0
 11
925.0
 21
-123.0
 31
0.0
  0
LINE
  5
346
100
AcDbEntity
  8
0
 62
256
370
-1
 48
1.0
  6
BYLAYER
100
AcDbLine
 10
925.0
 20
-123.0
 30
0.0
 11
919.0
 21
-123.0
 31
0.0
  0
LINE
  5
347
100
AcDbEntity
  8
0
 62
256
370
-1
 48
1.0
  6
BYLAYER
100
AcDbLine
 10
919.0
 20
-123.0
 30
0.0
 11
919.0
 21
-147.0
 31
0.0
  0
LINE
  5
348
100
AcDbEntity
  8
0
 62
256
370
-1
 48
1.0
  6
BYLAYER
100
AcDbLine
 10
919.0
 20
-147.0
 30
0.0
 11
925.0
 21
-147.0
 31
0.0
  0
LINE
  5
349
100
AcDbEntity
  8
0
 62
256
370
-1
 48
1.0
  6
BYLAYER
100
AcDbLine
 10
925.0
 20
-147.0
 30
0.0
 11
925.0
 21
-153.0
 31
0.0
  0
LINE
  5
34A
100
AcDbEntity
  8
0
 62
256
370
-1
 48
1.0
  6
BYLAYER
100
AcDbLine
 10
925.0
 20
-153.0
 30
0.0
 11
919.0
 21
-153.0
 31
0.0
  0
LINE
  5
34B
100
AcDbEntity
  8
0
 62
256
370
-1
 48
1.0
  6
BYLAYER
100
AcDbLine
 10
919.0
 20
-153.0
 30
0.0
 11
919.0
 21
-177.0
 31
0.0
  0
LINE
  5
34C
100
AcDbEntity
  8
0
 62
256
370
-1
 48
1.0
  6
BYLAYER
100
AcDbLine
 10
919.0
 20
-177.0
 30
0.0
 11
925.0
 21
-177.0
 31
0.0
  0
LINE
  5
34D
100
AcDbEntity
  8
0
 62
256
370
-1
 48
1.0
  6
BYLAYER
100
AcDbLine
 10
594.0
 20
-300.0
 30
0.0
 11
600.0
 21
-300.0
 31
0.0
  0
LINE
  5
34E
100
AcDbEntity
  8
0
 62
256
370
-1
 48
1.0
  6
BYLAYER
100
AcDbLine
 10
600.0
 20
-300.0
 30
0.0
 11
600.0
 21
-294.0
 31
0.0
  0
LINE
  5
34F
100
AcDbEntity
  8
0
 62
256
370
-1
 48
1.0
  6
BYLAYER
100
AcDbLine
 10
600.0
 20
-294.0
 30
0.0
 11
594.0
 21
-294.0
 31
0.0
  0
LINE
  5
350
100
AcDbEntity
  8
0
 62
256
370
-1
 48
1.0
  6
BYLAYER
100
AcDbLine
 10
594.0
 20
-294.0
 30
0.0
 11
594.0
 21
-270.0
 31
0.0
  0
LINE
  5
351
100
AcDbEntity
  8
0
 62
256
370
-1
 48
1.0
  6
BYLAYER
100
AcDbLine
 10
594.0
 20
-270.0
 30
0.0
 11
600.0
 21
-270.0
 31
0.0
  0
LINE
  5
352
100
AcDbEntity
  8
0
 62
256
370
-1
 48
1.0
  6
BYLAYER
100
AcDbLine
 10
600.0
 20
-270.0
 30
0.0
 11
600.0
 21
-264.0
 31
0.0
  0
LINE
  5
353
100
AcDbEntity
  8
0
 62
256
370
-1
 48
1.0
  6
BYLAYER
100
AcDbLine
 10
600.0
 20
-264.0
 30
0.0
 11
594.0
 21
-264.0
 31
0.0
  0
LINE
  5
354
100
AcDbEntity
  8
0
 62
256
370
-1
 48
1.0
  6
BYLAYER
100
AcDbLine
 10
594.0
 20
-264.0
 30
0.0
 11
594.0
 21
-240.0
 31
0.0
  0
LINE
  5
355
100
AcDbEntity
  8
0
 62
256
370
-1
 48
1.0
  6
BYLAYER
100
AcDbLine
 10
806.0
 20
-240.0
 30
0.0
 11
806.0
 21
-264.0
 31
0.0
  0
LINE
  5
356
100
AcDbEntity
  8
0
 62
256
370
-1
 48
1.0
  6
BYLAYER
100
AcDbLine
 10
806.0
 20
-264.0
 30
0.0
 11
800.0
 21
-264.0
 31
0.0
  0
LINE
  5
357
100
AcDbEntity
  8
0
 62
256
370
-1
 48
1.0
  6
BYLAYER
100
AcDbLine
 10
800.0
 20
-264.0
 30
0.0
 11
800.0
 21
-270.0
 31
0.0
  0
LINE
  5
358
100
AcDbEntity
  8
0
 62
256
370
-1
 48
1.0
  6
BYLAYER
100
AcDbLine
 10
800.0
 20
-270.0
 30
0.0
 11
806.0
 21
-270.0
 31
0.0
  0
LINE
  5
359
100
AcDbEntity
  8
0
 62
256
370
-1
 48
1.0
  6
BYLAYER
100
AcDbLine
 10
806.0
 20
-270.0
 30
0.0
 11
806.0
 21
-294.0
 31
0.0
  0
LINE
  5
35A
100
AcDbEntity
  8
0
 62
256
370
-1
 48
1.0
  6
BYLAYER
100
AcDbLine
 10
806.0
 20
-294.0
 30
0.0
 11
800.0
 21
-294.0
 31
0.0
  0
LINE
  5
35B
100
AcDbEntity
  8
0
 62
256
370
-1
 48
1.0
  6
BYLAYER
100
AcDbLine
 10
800.0
 20
-294.0
 30
0.0
 11
800.0
 21
-300.0
 31
0.0
  0
LINE
  5
35C
100
AcDbEntity
  8
0
 62
256
370
-1
 48
1.0
  6
BYLAYER
100
AcDbLine
 10
800.0
 20
-300.0
 30
0.0
 11
806.0
 21
-300.0
 31
0.0
  0
LINE
  5
35D
100
AcDbEntity
  8
0
 62
256
370
-1
 48
1.0
  6
BYLAYER
100
AcDbLine
 10
609.0
 20
-264.0
 30
0.0
 11
791.0
 21
-264.0
 31
0.0
  0
LINE
  5
35E
100
AcDbEntity
  8
0
 62
256
370
-1
 48
1.0
  6
BYLAYER
100
AcDbLine
 10
791.0
 20
-264.0
 30
0.0
 11
791.0
 21
-270.0
 31
0.0
  0
LINE
  5
35F
100
AcDbEntity
  8
0
 62
256
370
-1
 48
1.0
  6
BYLAYER
100
AcDbLine
 10
791.0
 20
-270.0
 30
0.0
 11
609.0
 21
-270.0
 31
0.0
  0
LINE
  5
360
100
AcDbEntity
  8
0
 62
256
370
-1
 48
1.0
  6
BYLAYER
100
AcDbLine
 10
609.0
 20
-270.0
 30
0.0
 11
609.0
 21
-264.0
 31
0.0
  0
LINE
  5
361
100
AcDbEntity
  8
0
 62
256
370
-1
 48
1.0
  6
BYLAYER
100
AcDbLine
 10
609.0
 20
-294.0
 30
0.0
 11
791.0
 21
-294.0
 31
0.0
  0
LINE
  5
362
100
AcDbEntity
  8
0
 62
256
370
-1
 48
1.0
  6
BYLAYER
100
AcDbLine
 10
791.0
 20
-294.0
 30
0.0
 11
791.0
 21
-300.0
 31
0.0
  0
LINE
  5
363
100
AcDbEntity
  8
0
 62
256
370
-1
 48
1.0
  6
BYLAYER
100
AcDbLine
 10
791.0
 20
-300.0
 30
0.0
 11
609.0
 21
-300.0
 31
0.0
  0
LINE
  5
364
100
AcDbEntity
  8
0
 62
256
370
-1
 48
1.0
  6
BYLAYER
100
AcDbLine
 10
609.0
 20
-300.0
 30
0.0
 11
609.0
 21
-294.0
 31
0.0
  0
LINE
  5
365
100
AcDbEntity
  8
0
 62
256
370
-1
 48
1.0
  6
BYLAYER
100
AcDbLine
 10
481.0
 20
-93.0
 30
0.0
 11
481.0
 21
-117.0
 31
0.0
  0
LINE
  5
366
100
AcDbEntity
  8
0
 62
256
370
-1
 48
1.0
  6
BYLAYER
100
AcDbLine
 10
481.0
 20
-117.0
 30
0.0
 11
475.0
 21
-117.0
 31
0.0
  0
LINE
  5
367
100
AcDbEntity
  8
0
 62
256
370
-1
 48
1.0
  6
BYLAYER
100
AcDbLine
 10
475.0
 20
-117.0
 30
0.0
 11
475.0
 21
-123.0
 31
0.0
  0
LINE
  5
368
100
AcDbEntity
  8
0
 62
256
370
-1
 48
1.0
  6
BYLAYER
100
AcDbLine
 10
475.0
 20
-123.0
 30
0.0
 11
481.0
 21
-123.0
 31
0.0
  0
LINE
  5
369
100
AcDbEntity
  8
0
 62
256
370
-1
 48
1.0
  6
BYLAYER
100
AcDbLine
 10
481.0
 20
-123.0
 30
0.0
 11
481.0
 21
-147.0
 31
0.0
  0
LINE
  5
36A
100
AcDbEntity
  8
0
 62
256
370
-1
 48
1.0
  6
BYLAYER
100
AcDbLine
 10
481.0
 20
-147.0
 30
0.0
 11
475.0
 21
-147.0
 31
0.0
  0
LINE
  5
36B
100
AcDbEntity
  8
0
 62
256
370
-1
 48
1.0
  6
BYLAYER
100
AcDbLine
 10
475.0
 20
-147.0
 30
0.0
 11
475.0
 21
-153.0
 31
0.0
  0
LINE
  5
36C
100
AcDbEntity
  8
0
 62
256
370
-1
 48
1.0
  6
BYLAYER
100
AcDbLine
 10
475.0
 20
-153.0
 30
0.0
 11
481.0
 21
-153.0
 31
0.0
  0
LINE
  5
36D
100
AcDbEntity
  8
0
 62
256
370
-1
 48
1.0
  6
BYLAYER
100
AcDbLine
 10
481.0
 20
-153.0
 30
0.0
 11
481.0
 21
-177.0
 31
0.0
  0
LINE
  5
36E
100
AcDbEntity
  8
0
 62
256
370
-1
 48
1.0
  6
BYLAYER
100
AcDbLine
 10
481.0
 20
-177.0
 30
0.0
 11
475.0
 21
-177.0
 31
0.0
  0
ENDSEC
  0
SECTION
  2
OBJECTS
  0
DICTIONARY
  5
C
100
AcDbDictionary
280
0
281
1
  3
ACAD_GROUP
350
D
  3
ACAD_LAYOUT
350
1A
  3
ACAD_MLINESTYLE
350
17
  3
ACAD_PLOTSETTINGS
350
19
  3
ACAD_PLOTSTYLENAME
350
E
  3
AcDbVariableDictionary
350
36F
  3
QCAD_OBJECTS
350
370
  0
DICTIONARY
  5
D
100
AcDbDictionary
280
0
281
1
  0
ACDBDICTIONARYWDFLT
  5
E
100
AcDbDictionary
281
1
  3
Normal
350
F
100
AcDbDictionaryWithDefault
340
F
  0
ACDBPLACEHOLDER
  5
F
  0
DICTIONARY
  5
17
100
AcDbDictionary
280
0
281
1
  3
Standard
350
18
  0
MLINESTYLE
  5
18
100
AcDbMlineStyle
  2
STANDARD
 70
0
  3

 62
256
 51
90.0
 52
90.0
 71
2
 49
0.5
 62
256
  6
BYLAYER
 49
-0.5
 62
256
  6
BYLAYER
  0
DICTIONARY
  5
19
100
AcDbDictionary
280
0
281
1
  0
DICTIONARY
  5
1A
100
AcDbDictionary
281
1
  3
Layout1
350
1E
  3
Layout2
350
26
  3
Model
350
22
  0
LAYOUT
  5
1E
100
AcDbPlotSettings
  1

  2
none_device
  4

  6

 40
0.0
 41
0.0
 42
0.0
 43
0.0
 44
0.0
 45
0.0
 46
0.0
 47
0.0
 48
0.0
 49
0.0
140
0.0
141
0.0
142
1.0
143
1.0
 70
688
 72
0
 73
0
 74
5
  7

 75
16
147
1.0
148
0.0
149
0.0
100
AcDbLayout
  1
Layout1
 70
1
 71
1
 10
0.0
 20
0.0
 11
420.0
 21
297.0
 12
0.0
 22
0.0
 32
0.0
 14
100000000000000000000.0
 24
100000000000000000000.0
 34
100000000000000000000.0
 15
-100000000000000000000.0
 25
-100000000000000000000.0
 35
-100000000000000000000.0
146
0.0
 13
0.0
 23
0.0
 33
0.0
 16
1.0
 26
0.0
 36
0.0
 17
0.0
 27
1.0
 37
0.0
 76
0
330
1B
  0
LAYOUT
  5
22
100
AcDbPlotSettings
  1

  2
none_device
  4

  6

 40
0.0
 41
0.0
 42
0.0
 43
0.0
 44
0.0
 45
0.0
 46
0.0
 47
0.0
 48
0.0
 49
0.0
140
0.0
141
0.0
142
1.0
143
1.0
 70
1712
 72
0
 73
0
 74
0
  7

 75
0
147
1.0
148
0.0
149
0.0
100
AcDbLayout
  1
Model
 70
1
 71
0
 10
0.0
 20
0.0
 11
12.0
 21
9.0
 12
0.0
 22
0.0
 32
0.0
 14
0.0
 24
0.0
 34
0.0
 15
0.0
 25
0.0
 35
0.0
146
0.0
 13
0.0
 23
0.0
 33
0.0
 16
1.0
 26
0.0
 36
0.0
 17
0.0
 27
1.0
 37
0.0
 76
0
330
1F
  0
LAYOUT
  5
26
100
AcDbPlotSettings
  1

  2
none_device
  4

  6

 40
0.0
 41
0.0
 42
0.0
 43
0.0
 44
0.0
 45
0.0
 46
0.0
 47
0.0
 48
0.0
 49
0.0
140
0.0
141
0.0
142
1.0
143
1.0
 70
688
 72
0
 73
0
 74
5
  7

 75
16
147
1.0
148
0.0
149
0.0
100
AcDbLayout
  1
Layout2
 70
1
 71
2
 10
0.0
 20
0.0
 11
12.0
 21
9.0
 12
0.0
 22
0.0
 32
0.0
 14
0.0
 24
0.0
 34
0.0
 15
0.0
 25
0.0
 35
0.0
146
0.0
 13
0.0
 23
0.0
 33
0.0
 16
1.0
 26
0.0
 36
0.0
 17
0.0
 27
1.0
 37
0.0
 76
0
330
23
  0
DICTIONARY
  5
36F
100
AcDbDictionary
281
1
  3
DIMASSOC
350
372
  3
HIDETEXT
350
371
  0
DICTIONARYVAR
  5
371
100
DictionaryVariables
280
0
  1
2
  0
DICTIONARYVAR
  5
372
100
DictionaryVariables
280
0
  1
1
  0
DICTIONARY
  5
370
100
AcDbDictionary
281
1
  3
ColorSettings/BackgroundColor
350
373
  3
ColorSettings/ColorMode
350
374
  3
Grid/DisplayGrid00
350
375
  3
Grid/DisplayGrid01
350
376
  3
Grid/DisplayGrid02
350
377
  3
Grid/DisplayGrid03
350
378
  3
Grid/GridSpacingX00
350
379
  3
Grid/GridSpacingX01
350
37A
  3
Grid/GridSpacingX02
350
37B
  3
Grid/GridSpacingX03
350
37C
  3
Grid/GridSpacingY00
350
37D
  3
Grid/GridSpacingY01
350
37E
  3
Grid/GridSpacingY02
350
37F
  3
Grid/GridSpacingY03
350
380
  3
Grid/IsometricGrid00
350
381
  3
Grid/IsometricGrid01
350
382
  3
Grid/IsometricGrid02
350
383
  3
Grid/IsometricGrid03
350
384
  3
Grid/IsometricProjection00
350
385
  3
Grid/IsometricProjection01
350
386
  3
Grid/IsometricProjection02
350
387
  3
Grid/IsometricProjection03
350
388
  3
Grid/MetaGridSpacingX00
350
389
  3
Grid/MetaGridSpacingX01
350
38A
  3
Grid/MetaGridSpacingX02
350
38B
  3
Grid/MetaGridSpacingX03
350
38C
  3
Grid/MetaGridSpacingY00
350
38D
  3
Grid/MetaGridSpacingY01
350
38E
  3
Grid/MetaGridSpacingY02
350
38F
  3
Grid/MetaGridSpacingY03
350
390
  3
MultiPageSettings/Columns
350
391
  3
MultiPageSettings/GlueMarginsBottom
350
392
  3
MultiPageSettings/GlueMarginsLeft
350
393
  3
MultiPageSettings/GlueMarginsRight
350
394
  3
MultiPageSettings/GlueMarginsTop
350
395
  3
MultiPageSettings/PrintCropMarks
350
396
  3
MultiPageSettings/Rows
350
397
  3
PageSettings/OffsetX
350
398
  3
PageSettings/OffsetY
350
399
  3
PageSettings/PageOrientation
350
39A
  3
PageSettings/PaperHeight
350
39B
  3
PageSettings/PaperWidth
350
39C
  3
PageSettings/Scale
350
39D
  3
PageSettings/ShowPaperBorders
350
39E
  3
PageTagSettings/EnablePageTags
350
39F
  3
PageTagSettings/TagAlignment
350
3A0
  3
PageTagSettings/TagFont
350
3A1
  3
PageTagSettings/TagPosition
350
3A2
  3
QCADVersion
350
3A3
  3
UnitSettings/PaperUnit
350
3A4
  3
ViewportCenter
350
3A5
  3
ViewportHeight
350
3A6
  3
ViewportWidth
350
3A7
  0
XRECORD
  5
373
330
370
100
AcDbXrecord
280
1
1000
White
  0
XRECORD
  5
374
330
370
100
AcDbXrecord
280
1
1000
FullColor
  0
XRECORD
  5
375
330
370
100
AcDbXrecord
280
1
290
1
  0
XRECORD
  5
376
330
370
100
AcDbXrecord
280
1
290
1
  0
XRECORD
  5
377
330
370
100
AcDbXrecord
280
1
290
1
  0
XRECORD
  5
378
330
370
100
AcDbXrecord
280
1
290
1
  0
XRECORD
  5
379
330
370
100
AcDbXrecord
280
1
1000
auto
  0
XRECORD
  5
37A
330
370
100
AcDbXrecord
280
1
1000
auto
  0
XRECORD
  5
37B
330
370
100
AcDbXrecord
280
1
1000
auto
  0
XRECORD
  5
37C
330
370
100
AcDbXrecord
280
1
1000
auto
  0
XRECORD
  5
37D
330
370
100
AcDbXrecord
280
1
1000
auto
  0
XRECORD
  5
37E
330
370
100
AcDbXrecord
280
1
1000
auto
  0
XRECORD
  5
37F
330
370
100
AcDbXrecord
280
1
1000
auto
  0
XRECORD
  5
380
330
370
100
AcDbXrecord
280
1
1000
auto
  0
XRECORD
  5
381
330
370
100
AcDbXrecord
280
1
290
0
  0
XRECORD
  5
382
330
370
100
AcDbXrecord
280
1
290
0
  0
XRECORD
  5
383
330
370
100
AcDbXrecord
280
1
290
0
  0
XRECORD
  5
384
330
370
100
AcDbXrecord
280
1
290
0
  0
XRECORD
  5
385
330
370
100
AcDbXrecord
280
1
 90
65537
  0
XRECORD
  5
386
330
370
100
AcDbXrecord
280
1
 90
65537
  0
XRECORD
  5
387
330
370
100
AcDbXrecord
280
1
 90
65537
  0
XRECORD
  5
388
330
370
100
AcDbXrecord
280
1
 90
65537
  0
XRECORD
  5
389
330
370
100
AcDbXrecord
280
1
1000
auto
  0
XRECORD
  5
38A
330
370
100
AcDbXrecord
280
1
1000
auto
  0
XRECORD
  5
38B
330
370
100
AcDbXrecord
280
1
1000
auto
  0
XRECORD
  5
38C
330
370
100
AcDbXrecord
280
1
1000
auto
  0
XRECORD
  5
38D
330
370
100
AcDbXrecord
280
1
1000
auto
  0
XRECORD
  5
38E
330
370
100
AcDbXrecord
280
1
1000
auto
  0
XRECORD
  5
38F
330
370
100
AcDbXrecord
280
1
1000
auto
  0
XRECORD
  5
390
330
370
100
AcDbXrecord
280
1
1000
auto
  0
XRECORD
  5
391
330
370
100
AcDbXrecord
280
1
 90
1
  0
XRECORD
  5
392
330
370
100
AcDbXrecord
280
1
 40
10.0
  0
XRECORD
  5
393
330
370
100
AcDbXrecord
280
1
 40
10.0
  0
XRECORD
  5
394
330
370
100
AcDbXrecord
280
1
 40
10.0
  0
XRECORD
  5
395
330
370
100
AcDbXrecord
280
1
 40
10.0
  0
XRECORD
  5
396
330
370
100
AcDbXrecord
280
1
290
0
  0
XRECORD
  5
397
330
370
100
AcDbXrecord
280
1
 90
1
  0
XRECORD
  5
398
330
370
100
AcDbXrecord
280
1
 40
0.0
  0
XRECORD
  5
399
330
370
100
AcDbXrecord
280
1
 40
0.0
  0
XRECORD
  5
39A
330
370
100
AcDbXrecord
280
1
1000
Portrait
  0
XRECORD
  5
39B
330
370
100
AcDbXrecord
280
1
 40
297.0
  0
XRECORD
  5
39C
330
370
100
AcDbXrecord
280
1
 40
210.0
  0
XRECORD
  5
39D
330
370
100
AcDbXrecord
280
1
1000
1:1
  0
XRECORD
  5
39E
330
370
100
AcDbXrecord
280
1
290
1
  0
XRECORD
  5
39F
330
370
100
AcDbXrecord
280
1
290
0
  0
XRECORD
  5
3A0
330
370
100
AcDbXrecord
280
1
1000
Inside
  0
XRECORD
  5
3A1
330
370
100
AcDbXrecord
280
1
1000
Arial,10,-1,5,50,0,0,0,0,0
  0
XRECORD
  5
3A2
330
370
100
AcDbXrecord
280
1
1000
TopLeft
  0
XRECORD
  5
3A3
330
370
100
AcDbXrecord
280
1
1000
3.27.6
  0
XRECORD
  5
3A4
330
370
100
AcDbXrecord
280
1
 90
4
  0
XRECORD
  5
3A6
330
370
100
AcDbXrecord
280
1
 40
1079.5961318972649678
  0
XRECORD
  5
3A7
330
370
100
AcDbXrecord
280
1
 40
1253.0492500414241022
  0
ENDSEC
  0
EOF
